Song name
# A B C D E F G H I J K L M N O P Q R S T U V W X Y Z

Lady Gaga - Dance In The Dark tab

-------------------------------------------------------------------------------
			     Dance in the Dark - Lady Gaga
-------------------------------------------------------------------------------
Tabbed by: dvon88
Email: xisephiroth@yahoo.com

This is a mix of vocals and music, no music tabs for the verse but there are for 
the intro and chorus. To see how it is played look up my channel on YouTube of the
same name (dvon88)

Tuning:CGCFAD

Intro

d|--------------14-14-------------------14-14--------------------------------|
A|--------------------17----------------------17-----------------------------|
F|-----------16----------16----------16----------16--------------------------|
C|--------17----------------------17-----------------------------------------|
G|---------------------------------------------------------------------------|
C|--14-14-------------------14-14--------------------------------------------|

d|---------------------------------------------------------------------------|
A|-------------15-15-13----------------15-15-13------------------------------|
F|----------12----------12----------12----------12---------------------------|
C|-------14----------------------14------------------------------------------|
G|---------------------------------------------------------------------------|
C|--10-10------------------10-10---------------------------------------------|

d|---------------------------------------------------------------------------|
A|---------------------------------------------------------------------------|
F|------------17-17-16--------------17-17-16---------------------------------|
C|---------17----------17--------17----------17------------------------------|
G|--0-0-19----------------0-0-19---------------------------------------------|
C|---------------------------------------------------------------------------|

d|---------------------------------------------------------------------------|
A|---------------------------------------------------------------------------|
F|----------4-2--2-----------------------------------------------------------|
C|------4-5----------/5--4--5-7----------------------------------------------|
G|---------------------------------------------------------------------------|
C|--2-2------------0---------------------------------------------------------|

That whole thing x2

Verse Vocals

d|--/7-----------------------------------------------------------------------|
A|------5--\(3)--5--5p3--5-5-3-----------------------------------------------|
F|-----------------------------5---------------------------------------------|
C|---------------------------------------------------------------------------|
G|---------------------------------------------------------------------------|
C|---------------------------------------------------------------------------|

d|--0-/7---------------------------------------------------------------------|
A|--------5-\(3)--5-5p3-/8--8--5---------------------------------------------|
F|---------------------------------------------------------------------------|
C|---------------------------------------------------------------------------|
G|---------------------------------------------------------------------------|
C|---------------------------------------------------------------------------|

d|--0-/7---------------------------------------------------------------------|
A|-------5-5\(3)-5p3-5-5p3-5~-5p3-5-5p3-5-5p3-/8-8-5-5p3-5-5p3-5p3-5-12-10-8-|
F|---------------------------------------------------------------------------|
C|---------------------------------------------------------------------------|
G|---------------------------------------------------------------------------|
C|---------------------------------------------------------------------------|

Prechorus

d|---------------------------------------------------------------------------|
A|---------------------------------------------------------------------------|
F|---------------------------------------------------------------------------|
C|---------------------------------------------------------------------------|
G|---------------------------------------------------------------------------|
C|--99999-77777--------------------------------------------------------------|

Chorus

Strum these

d|---------------------------------------------------------------------------|
A|---------------------------------------------------------------------------|
F|-----7-----5---------------------------------------------------------------|
C|--5--7--2--5---------------------------------------------------------------|
G|--5--5--2--3---------------------------------------------------------------|
C|--5-----2------------------------------------------------------------------|

For the vocals play this

d|--7-7-7-7-10---------------------------/10-8-7---------7-7-7-7-10----------|
A|-------------8--8--8-10--/8-10-8-10-8----------/10\8-------------8-8-8-10--|
F|---------------------------------------------------------------------------|
C|---------------------------------------------------------------------------|
G|---------------------------------------------------------------------------|
C|---------------------------------------------------------------------------|

d|--7-7-7-7-10--------------------------/10-8-7------------------------------|
A|-------------8--8--8-10--/8-10-8-10-8---------/10\8-5-5-5-5-5--5-5-5-8-7---|
F|-------------------------------------------------------------------------5-|
C|---------------------------------------------------------------------------|
G|---------------------------------------------------------------------------|
C|---------------------------------------------------------------------------|

Then back to


d|--------------14-14-------------------14-14--------------------------------|
A|--------------------17----------------------17-----------------------------|
F|-----------16----------16----------16----------16--------------------------|
C|--------17----------------------17-----------------------------------------|
G|---------------------------------------------------------------------------|
C|--14-14-------------------14-14--------------------------------------------|

d|---------------------------------------------------------------------------|
A|-------------15-15-13----------------15-15-13------------------------------|
F|----------12----------12----------12----------12---------------------------|
C|-------14----------------------14------------------------------------------|
G|---------------------------------------------------------------------------|
C|--10-10------------------10-10---------------------------------------------|

d|---------------------------------------------------------------------------|
A|---------------------------------------------------------------------------|
F|------------17-17-16--------------17-17-16---------------------------------|
C|---------17----------17--------17----------17------------------------------|
G|--0-0-19----------------0-0-19---------------------------------------------|
C|---------------------------------------------------------------------------|

d|---------------------------------------------------------------------------|
A|---------------------------------------------------------------------------|
F|----------4-2--2-----------------------------------------------------------|
C|------4-5----------/5--4--5-7----------------------------------------------|
G|---------------------------------------------------------------------------|
C|--2-2------------0---------------------------------------------------------|

Once


Verse 2 Vocals

d|--/7-----------------------------------------------------------------------|
A|------5--\(3)--5--5p3--5-5-3-----------------------------------------------|
F|-----------------------------5---------------------------------------------|
C|---------------------------------------------------------------------------|
G|---------------------------------------------------------------------------|
C|---------------------------------------------------------------------------|

d|--0-/7---------------------------------------------------------------------|
A|--------5-\(3)--5-5p3-/8--8--5--I add a little quick solo here-------------|
F|---------------------------------------------------------------------------|
C|---------------------------------------------------------------------------|
G|---------------------------------------------------------------------------|
C|---------------------------------------------------------------------------|

d|--0-/7-----------------------------------------------------------------------|
A|-------5-5\(3)-5p3-5-5p3-5~-5p3-5-5p3-5-5p3-/8-8-8-5-5p3-5-5p3-5p3-5-12-10-8-|
F|-----------------------------------------------------------------------------|
C|-----------------------------------------------------------------------------|
G|-----------------------------------------------------------------------------|
C|-----------------------------------------------------------------------------|

Prechorus

d|---------------------------------------------------------------------------|
A|---------------------------------------------------------------------------|
F|---------------------------------------------------------------------------|
C|---------------------------------------------------------------------------|
G|---------------------------------------------------------------------------|
C|--99999-77777--------------------------------------------------------------|

Chorus

Strum these

d|---------------------------------------------------------------------------|
A|---------------------------------------------------------------------------|
F|-----7-----5---------------------------------------------------------------|
C|--5--7--2--5---------------------------------------------------------------|
G|--5--5--2--3---------------------------------------------------------------|
C|--5-----2------------------------------------------------------------------|

For the vocals play this

d|--7-7-7-7-10---------------------------/10-8-7---------7-7-7-7-10----------|
A|-------------8--8--8-10--/8-10-8-10-8----------/10\8-------------8-8-8-10--|
F|---------------------------------------------------------------------------|
C|---------------------------------------------------------------------------|
G|---------------------------------------------------------------------------|
C|---------------------------------------------------------------------------|

d|--7-7-7-7-10--------------------------/10-8-7------------------------------|
A|-------------8--8--8-10--/8-10-8-10-8---------/10\8-5-5-5-5-5--5-5-5-8-7---|
F|-------------------------------------------------------------------------5-|
C|---------------------------------------------------------------------------|
G|---------------------------------------------------------------------------|
C|---------------------------------------------------------------------------|

For the interlude I just made up a D Minor harmony, never transcribed the chords
in the background

The only difference from there until the end is a bend on the last chorus where
the music cuts and she sings "babyyyyyyy" just do this

d|--10b-----p7--10-----------------------------------------------------------|

then continue the chorus as usual and the rest fades out.


************************************

| /   slide up
| \   slide down
| h   hammer-on
| p   pull-off
| ~   vibrato
| +   harmonic
| x   Mute note
| b   Bend
| pb  Pre-bend
| br  Bend release
| pbr Pre-bend release
| brb Bend release bend

************************************
Tap to rate this tab
 
# A B C D E F G H I J K L M N O P Q R S T U V W X Y Z