Song name
# A B C D E F G H I J K L M N O P Q R S T U V W X Y Z

Lady Gaga - Bad Romance tab

This is "Bad Romance" simplified, i havnt seen any tabs for it so i did 1.
this is just to give u a general idea, so u can make it heavyer if u want to.

im pretty sure its right as im not a big fan of her and have listened to it fully twice.


i play it like this with heavy distortion.

/slide to

e-----------------------------------------------------------|
B-----------------------------------------------------------|
G-----------------------------------------------------------|
D---5--7--9--5--10---10-10-9-7--5--5--7---9-9-9-9--7--5-----| X2
A-----------------------------------------------------------|
E-----------------------------------------------------------|


e--------------------------------------------------------------------|
B--------------------------------------------------------------------|
G--------------------------------------------------------------------|
D--------------------------------------------------------------------|
A----------------8-7-8-7-------8-7-8-7------8-7-8-7------2-2-2-2-2-2-|
E----------5-5------------5-5-----------5-5--------------0-3-0-3-0-3-|


e---------------------------------------------------------------------|
B---------------------------------------------------------------------|
G---------------------------------------------------------------------|
D---5-7-5-7-5-5-7/9-7-5-7-------5-7--10-9-7------5-7------------------|
A---------------------------5-7--------------5-7----------------------|
E---------------------------------------------------------------------|

e-------------------------------------------------------------------|
B---10-10-10-10-8-8-8-----------------------------------------------|
G---------------------7-7-7-9--9-9-9--12-9-7-7/5--------------------|
D-------------------------------------------------------------------|
A-------------------------------------------------------------------|
E-------------------------------------------------------------------|

and this again after

e------------------------------------------------------------|
B------------------------------------------------------------|
G------------------------------------------------------------|
D---5--7--9--5--10---10-10-9-7--5--5--7---9-9-9-9--7--5------|
A------------------------------------------------------------|
E------------------------------------------------------------|
Tap to rate this tab
# A B C D E F G H I J K L M N O P Q R S T U V W X Y Z