Song name
# A B C D E F G H I J K L M N O P Q R S T U V W X Y Z

Lady Gaga - Telephone tab

This is my first tab... Pretty accurate... Took 20 minutes...

email requests to me: leq_111991@yahoo.com


(Played once)

d|--10-----------------------------------15-13-12--------------------------|
A|-------13----11--------------------11--------------13----------10-----11~|
F|-------------------12------10-12-------------------------12-----------12~|
C|----------------------------------------------------------------------12~|
G|----10----10----10----10-8-------8----8---------10----10----10----10-----|
D|-------------------------------------------------------------------------|


(Repeat this)
d|--10-----------------------------------15-13-12----------------------------
A|-------13----11--------------------11--------------13----------10----11----
F|-------------------12------10-12-------------------------12----------------
C|---------------------------------------------------------------------------
G|----10----10----10----10-8-------8----8---------10----10----10----10-------
D|---------------------------------------------------------------------------

d|-----------------------|
A|-----------------------|
F|-----12----10---10-12--|
C|-----------------------|
G|--10----10----8--------|
D|-----------------------|


I know the rest of the song, but im to lazy to tab it.
But ill give u the chords it uses... (u figure out the sequence, and when what is played)


C|--3--5--8--10--12---|  (Note: this isnt arranged to how its played,
G|--3--5--8--10--12---|   theyre just the chords used in the song....
D|--1--3--6--8---10---|   you can find out what order to play em on 
                          your own)

Enjoy... =)

email me with requests at leq_111991@yahoo.com
Tap to rate this tab
# A B C D E F G H I J K L M N O P Q R S T U V W X Y Z