Song name
# A B C D E F G H I J K L M N O P Q R S T U V W X Y Z

Lady Gaga - Telephone tab

Capo on 1st

e|-7-5-3-0-------12-10-9-5-0-2-3-|
B|---------3-5-8-----------------|
G|-------------------------------|
D|-------------------------------|
A|-------------------------------|
E|-------------------------------|

Listen to song for rythem if you dont know it...

** If you dont have a capo it goes like this...

e|-8-6-4-1-------13-11-10-6-1-3-4-|
B|---------4-6-9------------------|
G|--------------------------------|
D|--------------------------------|
A|--------------------------------|
E|--------------------------------|

Basiclly each fret number goes up by one.. Enjoy:)
Tap to rate this tab
 
# A B C D E F G H I J K L M N O P Q R S T U V W X Y Z