Song name
# A B C D E F G H I J K L M N O P Q R S T U V W X Y Z

Lady Gaga - Paparazzi tab

-------------------------------------------------------------------------------
			    Paparazzi - Lady GaGa
-------------------------------------------------------------------------------

Tabbed by: Reesy
Email: rees1_6@live.com

Please note, this is the vocal tab.
Tuning: Standard

Intro: this is optional, as it's not part of the vocal line. If you do choose to play 
they are in rapid succession, you'll know what part it's meant to be if you listen to the song.
e|---xx------------------88------------------------------------------------------|
B|---xx----------OR------88------------------------------------------------------|
G|-------------------------------------------------------------------------------|
D|-------------------------------------------------------------------------------|
A|-------------------------------------------------------------------------------|
E|-------------------------------------------------------------------------------|

Verse:
e|------------------------------------------------------------|
B|------------------------------------------------------------|
G|------------------------------------------------------------|
D|------------------------------------------------------------|
A|-10-10-10-----------10-11-13-11--10-6-5-6----8-6-5---5-6----|
E|----------8-88---x3-----------------------8--------8-----8--|
              PM

This bit i cannot work out, this is as close as i can get, please email if you know a 
way. It's supposed to be the because you know that baby i'm bit.
e|------------------------------------------------------------------------------|
B|------------------------------------------------------------------------------|
G|------------------------------------------------------------------------------|
D|------------------------------------------------------------------------------|
A|-6h8-8-8-13-13----------------------------------------------------------------|
E|---------------13-------------------------------------------------------------|
  because you know that baby i'm...

Chorus:
e|----------------------------------------------------------------------------|
B|----------------------------------------------------------------------------|
G|-13-13-13-13-13-15-12-12-12-12-12-13-/17-13--10-12--10-12-17-13-------------|
D|----------------------------------------------------------------------------|
A|----------------------------------------------------------------------------|
E|----------------------------------------------------------------------------|
   x2, then
e|---------------------------------------------------------------------------|
B|-16-14-13-11-8--88888--16-14-13-11-6---------------------------------------|
G|---------------------------------------------------------------------------|
D|---------------------------------------------------------------------------|
A|---------------------------------------------------------------------------|
E|---------------------------------------------------------------------------|
  then back to the 13 section

Bridge: Again, this is hard to work out for me so if you know the real way, please let 
know, but this is closer than those i've seen so far
e|------------------------------------------------------------------------------------|
B|------------------------------------------------------------------------------------|
G|------------------------------------------------------------------------------------|
D|------------------------------------------------------------------------------------|
A|-10------10----------10-------------------------------------------------------------|
E|----8---8--8--8-8-88---8------------------------------------------------------------|
  play around with these two notes for the rest of the bridge, the pattern is similar throughout
and last time round (still have fun) just play this
e|-----------------------------------------------------------------------------------|
B|-----------------------------------------------------------------------------------|
G|-----------------------------------------------------------------------------------|
D|-10-10-10b-------------------------------------------------------------------------|
A|-----------------------------------------------------------------------------------|
E|-----------------------------------------------------------------------------------|

Done, the song is pretty simple structure-wise, so play around with it and let me know 
you have any corrections please.

************************************

| /   slide up
| \   slide down
| h   hammer-on
| p   pull-off
| ~   vibrato
| +   harmonic
| x   Mute note
| b   Bend
| pb  Pre-bend
| br  Bend release
| pbr Pre-bend release
| brb Bend release bend

************************************
Tap to rate this tab
# A B C D E F G H I J K L M N O P Q R S T U V W X Y Z