Song name
# A B C D E F G H I J K L M N O P Q R S T U V W X Y Z

Lady Gaga - Alejandro tab

-------------------------------------------------------------------------------
			     ALEJANDRO - Lady GaGa
-------------------------------------------------------------------------------
Tabbed by: Athos B.
Email: athos_barros@hotmail.com

e|---------------------------------------------------------------------|
B|--------------5/7--3--3--5--3--2--8-------------2--5--5--3-----1/2---|
G|---------------------------------------------3--------------3--------|
D|--4--5/7/5--4-----------------------5--5--4--------------------------|
A|---------------------------------------------------------------------|
E|---------------------------------------------------------------------|

e|---------------------------------------------------------------------|
B|---------------2--2/3------------------------------------------------|
G|---4--4--3--4--------------------------------------------------------|
D|---------------------------------------------------------------------|
A|---------------------------------------------------------------------|
E|---------------------------------------------------------------------|

Repeat this part 2 times, then:


e|---------------------------------------------------------------------|
B|--0--0--0--3--5--7--7--7--5--7--7--7--3--2--2-3-2-3------------------|
G|---------------------------------------------------------------------|
D|---------------------------------------------------------------------|
A|---------------------------------------------------------------------|
E|---------------------------------------------------------------------|


e|----------------------------------------5--5-------------------------|
B|--0--0--0--3--5--7--7--7--5--7--7--7--7--7--7------------------------|
G|---------------------------------------------------------------------|
D|---------------------------------------------------------------------|
A|---------------------------------------------------------------------|
E|---------------------------------------------------------------------|

Then you start playing the chords normally (I recommend the Version 3 of Alejandro chords)

Hugs from Brazil (:

Tap to rate this tab
 
# A B C D E F G H I J K L M N O P Q R S T U V W X Y Z