Song name
# A B C D E F G H I J K L M N O P Q R S T U V W X Y Z

Lady Gaga - Brown Eyes tab

-------------------------------------------------------------------------------
			    BROWN EYES - Lady gaga
-------------------------------------------------------------------------------
Tabbed by: Gabriella Gee
Email:gabriella_gee@hotmail.com

Tuning:E standard 
CHORDS:
  Bb  Dm  Cm FAm5 (PLEASE CORRECT ME IF THIS IS THE WRONG NAME FOR THE CHORD)
e-1-|-1-|-3-|-0-|
B-3-|-3-|-5-|-1-|
G-3-|-2-|-6-|-2-|
D-3-|-0-|-6-|-3-|
A-1-|-X-|-3-|-3-|
E-1-|-X-|-3-|-0-|



Intro:
e-------------------------------------------|
B---6------------6------------4----4~-------|
G---7------------7------------7----5~-----5-|
D---8--10h12-10--8--10h12-10--8----6~---6---|
A--------------------------------6----6-----|
E-------------------------------------------|(x2)


Verse: (piano bit)
This is what is heard in verse one but can also be played in verse two.

e-------------------------------|
B-6-------6--------6---4--------|
G-7-------7--------7---5------5-|
D-8---8---8---8----8---6----6---|
A---8---8---8---8----8----6-----|
E-------------------------------|
Or ALTERNATIVELY:

        Bb         Dm
in your brown eyes walked away
        Cm         FAm5
in your brown eyes couldn't stay
        Bb         Dm
in your brown eyes you watch her go
        Cm         FAm5
turn the record on and wonder what went wrong.

Chorus:

   Bb             Dm              Cm            FAm5
If everything was everything, but everything is over
Bb                  Dm             Cm           FAm5
Everything could be everything, if only we were older
Bb                Dm          Cm       FAm5
Guess it's just a silly song about you
          Cm  FAm5
And how I lost you and your brown eyes

(Play intro bit again and yeeeeep)

Please let me know if you find any mistakes.
This is kind of my own version to the song without the piano.

************************************

| /   slide up
| \   slide down
| h   hammer-on
| p   pull-off
| ~   let ring
| +   harmonic
| x   Mute note
| b   Bend
| pb  Pre-bend
| br  Bend release
| pbr Pre-bend release
| brb Bend release bend

************************************
Tap to rate this tab
 
# A B C D E F G H I J K L M N O P Q R S T U V W X Y Z