Song name
# A B C D E F G H I J K L M N O P Q R S T U V W X Y Z

Lady Gaga - Dance In The Dark tab

Dance in the dark

intro
2x
e------------------------------------------------------------------|
B------------------------------------------------------------------|
G------------------10-10------------------------10-10--------------|
D--------------12---------12-12--------------12--------12-12-------|
A-----------12----------------------------12-----------------------|
E---10-10---------------------------10-10--------------------------|


e------------------------------------------------------------------|
B------------------------------------------------------------------|
G--------------7-7---------------------------7-7-------------------|
D----------8---------8-8-----------------8---------8-8-------------|
A-------8-----------------------------8----------------------------|
E---6-6---------------------------6-6------------------------------|


e------------------------------------------------------------------|
B-----------------11-11---------------------------11-11------------|
G-------------12--------12-12-----------------12--------12-12------|
D----------12------------------------------12----------------------|
A----10-10---------------------------10-10-------------------------|
E------------------------------------------------------------------|


e--------------------------------------------------------------------|
B--------------------------------------------------------------------|
G------------------10------------------------------------------------|
D--------------12---------12----10-----8-----7~----------------------|
A-----------12-------------------------------------------------------|
E---10-10------------------------------------------------------------|

(0:47  1:17)	+   (2:05  2:34)
e--------------------------------------------------------------------------|
B--------------------------------------------------------------------------|
G---7-----3-----------7----5------------10-------------------10------------|
D---7-----3-----5-----7----5--------8---10------10-----8-----10-----5---3--|
A---5-----1-----5-----5----3--------8----8------10-----8------8-----5---3--|
E---------------3-------------------6------------8-----6------------3---1--|

2x      (1:17  1:49)  + (3:45  4:16)
e-----------------------------------------------------------------------------|
B-----------------------------------------------------------------------------|
G---14-14-14-14----17---14---------------------------------17--15--14--------|
D--------------------------17-15-17~-----17--17-17---------------------17-15~-|
A-----------------------------------------------------------------------------|
E-----------------------------------------------------------------------------|


e-----------------------------------------------------------------------------|
B-------------------------------------------18--17--15---------18--17--15-----|
G---14-14-14-14----17---14------------------------------17~---------------17~-|
D---------------------------17-15-17~-----------------------------------------|
A-----------------------------------------------------------------------------|
E-----------------------------------------------------------------------------|

Ref:


(2:35- 3:06) Baby love to dance in the dark...
e------------------------------------------------------------------|
B------------------------------------------------------------------|
G------------------------------------------------------------------|
D----3----10----12----8--------------------------------------------|
A----3----10----12----8--------------------------------------------|
E----1-----8----10----6--------------------------------------------|

(3:06  3:22) She loves to dance in the... +(4:16.....end)
e------------------------------------------------------------------|
B------------------------------------------------------------------|
G----------10------------------------------------------------------|
D-----8----10----10------------------------------------------------|
A-----8-----8----10------------------------------------------------|
E-----6-----------8------------------------------------------------|


Marilyn,    Judy,     Sylvia...(3:23  3:45)
e------------------------------------------------------------------|
B------------------------------------------------------------------|
G------------------------------------------------------------------|
D-----8-------3---------10-----------------------------------------|
A-----8-------3---------10-----------------------------------------|
E-----6-------1----------8-----------------------------------------|
Tap to rate this tab
 
# A B C D E F G H I J K L M N O P Q R S T U V W X Y Z