Song name
# A B C D E F G H I J K L M N O P Q R S T U V W X Y Z

Lady Gaga - Electric Chapel tab

-------------------------------------------------------------------------------
			     Electric Chapel - Lady Gaga
-------------------------------------------------------------------------------
Tabbed by: bamhm182
Email: bamhm182@gmail.com

Tuning: Standard

Notes: In the actual song, the chords are muted, I prefer to play them unmated.

e|-----------------------------------|-----------------------------------|
B|-----------------------------------|-----------------------------------|
G|------2-----4-----5-----4-----5-5--|------2-----4-----5-----4-----5-5--|
D|--2-2---2-2---2-2---2-2---2-2------|--0-0---0-0---0-0---0-0---0-0-0-0--|
A|--0-0---0-0---0-0---0-0---0-0------|-----------------------------------|
E|-----------------------------------|-----------------------------------|

e|-----------------------------------|-----------------------------------|
B|-----------------------------------|-----------------------------------|
G|------2-----4-----5-----4-----5-5--|------2-----4-----5-----4-----5-5--|
D|--2-2---2-2---2-2---2-2---2-2-2-2--|--0-0-0-0-0-0-0-0-0-0-0-0-0-0-0-0--|
A|--0-0---0-0---0-0---0-0---0-0-0-0--|-----------------------------------|
E|-----------------------------------|-----------------------------------|

Play Twice
Tap to rate this tab
 
# A B C D E F G H I J K L M N O P Q R S T U V W X Y Z