Song name
# A B C D E F G H I J K L M N O P Q R S T U V W X Y Z

Lady Gaga - Born This Way tab

Basically this all the way through the song

E|---------------------------------------------------------------------|
B|---------------------------------------------------------------------|
G|-11--11--11-11-11-11---9--9--9-9-9-9---------------------------------|
D|-11--11--11-11-11-11---9--9--9-9-9-9---9--9--9-9-9-9---4--4--4-4-4-4-|
A|-9---9---9--9--9--9----7--7--7-7-7-7---9--9--9-9-9-9---4--4--4-4-4-4-|
E|---------------------------------------7--7--7-7-7-7---2--2--2-2-2-2-|


At this part of the chorus:

"Ooh, there ain't no other way, baby, I was born this way"

Play this along with the words:

E|---------------|
B|-7p5-7p5-7p5h7-|
G|---------------|
D|---------------|
A|---------------|
E|---------------|
Tap to rate this tab
 
# A B C D E F G H I J K L M N O P Q R S T U V W X Y Z