Song name
# A B C D E F G H I J K L M N O P Q R S T U V W X Y Z

Lady Gaga - Speechless tab

Sorry, I haven't been tabbing for long, but I was trying to find tabs for the intro of
this song but I couldn't. So I decided to give it a go and do it myself. I don't know how
to explain the slides and hammer ons in writing I've tried my best. I guess you can add 
a hammer on whenever you feel it necessary to make it smoother and pick less. Anyways
enjoy :)

v - vibrato (just bend upwards and downwards once in this song)
/ - slide up
b - bend string up
h - hammer on

e|--------------------------------------------------------------------------|
B|-------------8b-----------------------------------------------------------|
G|--7v--6--5-----------7v--6--5------------7v--6--5--5h7v--6--5-------------|
D|--------------------------------5b------------------------------7v--------|
A|--------------------------------------------------------------------------|
E|--------------------------------------------------------------------------|


e--------------------------------|
B--------------------------------|
G--------------------------------|
D----5--5--5--5--5---------------|
A----5--5--5--5--5---------------|
E--------------------------------|


p.s. even though this isn't the real intro it seems to flow better:

e|-----------------------5------------------------------5-------------------|
B|-------------5/8--8-------5-----------------5/8--8------------------------|
G|--7v--6--5-----------------------7v--6--5----------------7----------------|
D|--------------------------------------------------------------------------|
A|--------------------------------------------------------------------------|
E|--------------------------------------------------------------------------|

e|--------------------------------------------------|
B|--------------------------------------------------|
G|--7v--6--5--5h7v--6--5----------------------------|
D|-------------------------7v----5--5--5--5--5------|
A|-------------------------------5--5--5--5--5------|
E|--------------------------------------------------|
Tap to rate this tab
# A B C D E F G H I J K L M N O P Q R S T U V W X Y Z