Song name
# A B C D E F G H I J K L M N O P Q R S T U V W X Y Z

Lady Gaga - Edge Of Glory tab

There aint no reason you and me should be alone tonight yeah baby......
e|55-4-5----------------5-4-2-0-5-4-2-0-55-4-5-------------------|
B|------55-2-5-2-5-2-7-5----------------------55-2-5-2-5-2-7-5-2-|
G|---------------------------------------------------------------|
D|---------------------------------------------------------------|
A|---------------------------------------------------------------|
E|---------------------------------------------------------------|

I need man that thinks its right when its so wrong tonight yeah baby....

e|55-4-5----------------5-4-2-0-5-4-2-0-55-4-5-------------------|
B|------55-2-5-2-5-2-7-5----------------------55-2-5-2-5-2-7-5-2-|
G|---------------------------------------------------------------|
D|---------------------------------------------------------------|
A|---------------------------------------------------------------|
E|---------------------------------------------------------------|

Its hard to feel the rush, to brush the dangerous, im gonna run back.....

e|----------------5-4-2-0---2------------5-4-2---------4\5-5555-5\7-|
B|5-3-2-5-----------------2---5-3-2-5-------------------------------|
G|--------2-2\4-2---------------------22-------22--222--------------|
D|------------------------------------------------------------------|
A|------------------------------------------------------------------|
E|------------------------------------------------------------------|

Im on the edge, of glory, and im hanging on a moment of truth......

e|9-7-55(let it ring)5-7-4-00-55555-4-0-2-55-5\7-5--5-7-4-00-55555-4-0-2-|
B|-----------------------------------------------------------------------|
G|-----------------------------------------------------------------------|
D|-----------------------------------------------------------------------|
A|-----------------------------------------------------------------------|
E|-----------------------------------------------------------------------|

Im on the edge, the edge, the edge, the edge,the edge, the edge, the edge!!!.....

e|2\5-555-00-5\7-7-00-7\9-9-55-5\10-10--9-7-55-5-7-4-00-99999-7-55-9999-55-|
B|-------------------------------------------------------------------------|
G|-------------------------------------------------------------------------|
D|-------------------------------------------------------------------------|
A|-------------------------------------------------------------------------|
E|-------------------------------------------------------------------------|

Another shot before we kiss the other side tonight yeah baby......

e|55-4-5----------------5-4-2-0-5-4-2-0-55-4-5-------------------55~/-55---|/
B|------55-2-5-2-5-2-7-5----------------------55-2-5-2-5-2-7-5-2-----------|
G|-------------------------------------------------------------------------|
D|-------------------------------------------------------------------------|
A|-------------------------------------------------------------------------|
E|-------------------------------------------------------------------------|

Put on your shades cuz ill be dancing in the flames tonight yeah baby.....

e|55-4-5----------------5-4-2-0-5-4-2-0-55-4-5-------------------55~/-55---|/
B|------55-2-5-2-5-2-7-5----------------------55-2-5-2-5-2-7-5-2-----------|
G|-------------------------------------------------------------------------|
D|-------------------------------------------------------------------------|
A|-------------------------------------------------------------------------|
E|-------------------------------------------------------------------------|

Saxophone Solo


e|-----------------------------------------------------|
B|----------------------------10-10\12-12~-12\14-10-10-|
G|-7-7-7\9-9---------999~-9-11-------------------------|
D|-----------9-111111----------------------------------|
A|-----------------------------------------------------|
E|-----------------------------------------------------|


e|-----------------------------------------------------------------------|
B|-----10-10~----------10-12b-12b-12~-1010----10-10~--10\15-15\16-16\17~-|
G|9-11-------11--9-11----------------------11----------------------------|
D|-----------------------------------------------------------------------|
A|-----------------------------------------------------------------------|
E|-----------------------------------------------------------------------|


e|-------------------------------------------------------------------------|
B|12b-12b-12b-12b-12b-12b\17--12b-10~----10-10~----10-10~----10-10~----10~-|
G|------------------------------------11--------11-------11---------11-----|
D|-------------------------------------------------------------------------|
A|-------------------------------------------------------------------------|
E|-------------------------------------------------------------------------|


e|---------------------------------------------------------|
B|---10~/--------------------------------------------------|
G|11-----------------------------------2~--2~--2~--2~------|
D|-------------------------------------2~--2~--2~--2~------|
A|---------------------------------------------------------|
E|---------------------------------------------------------|
Tap to rate this tab
# A B C D E F G H I J K L M N O P Q R S T U V W X Y Z