Song name
# A B C D E F G H I J K L M N O P Q R S T U V W X Y Z

Lady Gaga - Love Game tab

-------------------------------------------------------------------------------
                             LOVEGAME - Ladygaga
-------------------------------------------------------------------------------
Tabbed by: Darkshot08

Tuning: Drop D

This is my first tab, learned this song by ear :)

0:10
e|-------------------------------------------------------|
B|-------------------------------------------------------|
G|----------------12-11----9--99---999----11----7--------| x6
D|-9--99---999----12-11----9--99---999----11----7--------|
A|-9--99---999----10-9-----7--77---777----9-----5--------|
D|-9--99---999-------------------------------------------|

0:38 "Hold and love me..."
e|---------------------------------------------------------------------------|
B|-12--12-12-12-12-14-12-14-12-14--15--15-15-15-15-14h15--12-12\10\12--------|
G|---------------------------------------------------------------------------| x2
D|---------------------------------------------------------------------------|
A|---------------------------------------------------------------------------|
D|---------------------------------------------------------------------------|

e|---------------------------------------------------------------------------|
B|-12--12-12-12-12-14-12-14-12-14--15--15-15-15-15-14h15-12------------------|
G|----------------------------------------------------------12-11------------| x2
D|---------------------------------------------------------------------------|
A|---------------------------------------------------------------------------|
D|---------------------------------------------------------------------------|

0:56 "Lets play a lovegame..."
e|---------------------------------------------------------------------------|
B|---------------------------------------------------------------------------|
G|---------------------------------------------------------------------------| x4
D|--9--9-9-12-9-9-9-9-12-9-9-9-9---12--12-12-12-12-12-12---7--7-7-7-7-7-7----|
A|--9--9-9-12-9-9-9-9-12-9-9-9-9---12--12-12-12-12-12-12---7--7-7-7-7-7-7----|
D|--9--9-9-12-9-9-9-9-12-9-9-9-9---12--12-12-12-12-12-12---7--7-7-7-7-7-7----|

1:14
e|-------------------------------------------------------|
B|-------------------------------------------------------|
G|----------------12-11----9--99---999----11----7--------| x6
D|-9--99---999----12-11----9--99---999----11----7--------|
A|-9--99---999----10-9-----7--77---777----9-----5--------|
D|-9--99---999-------------------------------------------|

1:41 "Hold me and love me..."
e|---------------------------------------------------------------------------|
B|-12--12-12-12-12-14-12-14-12-14--15--15-15-15-15-14h15--12-12\10\12--------|
G|---------------------------------------------------------------------------| x2
D|---------------------------------------------------------------------------|
A|---------------------------------------------------------------------------|
D|---------------------------------------------------------------------------|

e|---------------------------------------------------------------------------|
B|-12--12-12-12-12-14-12-14-12-14--15--15-15-15-15-14h15-12------------------|
G|----------------------------------------------------------12-11------------| x2
D|---------------------------------------------------------------------------|
A|---------------------------------------------------------------------------|
D|---------------------------------------------------------------------------|

2:00 "Let's play a lovegame..."
e|---------------------------------------------------------------------------|
B|---------------------------------------------------------------------------|
G|---------------------------------------------------------------------------| x4
D|--9--9-9-12-9-9-9-9-12-9-9-9-9---12--12-12-12-12-12-12---7--7-7-7-7-7-7----|
A|--9--9-9-12-9-9-9-9-12-9-9-9-9---12--12-12-12-12-12-12---7--7-7-7-7-7-7----|
D|--9--9-9-12-9-9-9-9-12-9-9-9-9---12--12-12-12-12-12-12---7--7-7-7-7-7-7----|

2:18
e|-------------------------------------------------------|
B|-------------------------------------------------------|
G|----------------12-11----9--9----9-9----11----7--------| x6
D|-9--99---999----12-11----9--9----9-9----11----7--------|
A|-9--99---999----10-9-----7--7----7-7----9-----5--------|
D|-9--99---999-------------------------------------------|

2:28 "I can see you..."
e|-------------------------------------------------------|
B|--12-12-12-12-12-12-12-12------------------------------|
G|--x--x--x--x--x--x--x--x--11-11-11-11-11-11-11-11------|
D|--9--9--9--9--9--9--9--9--x--x--x--x--x--x--x--x-------|
A|--------------------------9--9--9--9--9--9--9--9-------|
D|-------------------------------------------------------|

e|-------------------------------------------------------|
B|-------------------------------------------------------|
G|-12-12-12-12-12-12-12---6-6-6-6--11\12/11--------------|
D|-x--x--x--x--x--x--x----x-x-x-x---x-xx-x---------------|
A|-10-10-10-10-10-10-10---4-4-4-4---9\10/9---------------|
D|-------------------------------------------------------|

e|-------------------------------------------------------|
B|--12-12-12-12-12-12-12-12------------------------------|
G|--x--x--x--x--x--x--x--x--11-11-11-11-11-11-11-11------|
D|--9--9--9--9--9--9--9--9--x--x--x--x--x--x--x--x-------|
A|--------------------------9--9--9--9--9--9--9--9-------|
D|-------------------------------------------------------|

e|-------------------------------------------------------|
B|-------------------------------------------------------|
G|-12-12-12-12-12-12-12---6-6-6-6--11\12/11-11\12/11-----|
D|-x--x--x--x--x--x--x----x-x-x-x---x-xx-x---x-xx-x------|
A|-10-10-10-10-10-10-10---4-4-4-4---9\10/9---9\10/9------|
D|-------------------------------------------------------|

2:46
e|-------------------------------------------------------|
B|-------------------------------------------------------|
G|----------------12-11----9--99---999----11----7--------| x2
D|-9--99---999----12-11----9--99---999----11----7--------|
A|-9--99---999----10-9-----7--77---777----9-----5--------|
D|-9--99---999-------------------------------------------|

2:55 "Lets play a lovegame..."
e|---------------------------------------------------------------------------|
B|---------------------------------------------------------------------------|
G|---------------------------------------------------------------------------| x5
D|--9--9-9-12-9-9-9-9-12-9-9-9-9---12--12-12-12-12-12-12---7--7-7-7-7-7-7----|
A|--9--9-9-12-9-9-9-9-12-9-9-9-9---12--12-12-12-12-12-12---7--7-7-7-7-7-7----|
D|--9--9-9-12-9-9-9-9-12-9-9-9-9---12--12-12-12-12-12-12---7--7-7-7-7-7-7----|

3:18 "Let's have some fun this beat is sick..."
e|-------------------------------------------------------|
B|-------------------------------------------------------|
G|----------------12-11----9--99---999----11----7--------| x2
D|-9--99---999----12-11----9--99---999----11----7--------|
A|-9--99---999----10-9-----7--77---777----9-----5--------|
D|-9--99---999-------------------------------------------|

3:27 "Don't think too much..."
e|---------------------------------------------------------------------------|
B|-12--12-12-12-12-14-12-14-12-14--15--15-15-15-15-14h15-12------------------|
G|----------------------------------------------------------12-11------------| x2
D|---------------------------------------------------------------------------|
A|---------------------------------------------------------------------------|
D|---------------------------------------------------------------------------|
************************************

| /   slide up
| \   slide down
| h   hammer-on
| p   pull-off
| ~   vibrato
| +   harmonic
| x   Mute note
| b   Bend
| pb  Pre-bend
| br  Bend release
| pbr Pre-bend release
| brb Bend release bend

************************************
Tap to rate this tab
 
# A B C D E F G H I J K L M N O P Q R S T U V W X Y Z