Song name
# A B C D E F G H I J K L M N O P Q R S T U V W X Y Z

Lady Gaga - You And I tab

e|-------------------------------------|
b|-17br-17br--17b-17--17b-17--20b-20b~-|
g|-------------------------------------|
d|-------------------------------------|
a|-------------------------------------|
e|-------------------------------------|

|---------------------------------------------|
|-17-20p17-----17-----17------------17--------|
|----------19b----19b----19brp17-19----17-----|
|-----------------------------------------19~-|
|---------------------------------------------|
|---------------------------------------------|

|------------------------------------------------------|
|-------------------------17b-17-16-15--14h15-14h15-14-|
|----14-16-17p16p14----14---------------14----14----14-|
|-16----------------16------------------14h16-14h16-14-|
|------------------------------------------------------|
|------------------------------------------------------|

b = bend
r = release
p = pull off
h = hammer on
~ = vibrato
Tap to rate this tab
# A B C D E F G H I J K L M N O P Q R S T U V W X Y Z