Song name
# A B C D E F G H I J K L M N O P Q R S T U V W X Y Z

Lady Gaga - Applause tab

TITLE:      Applause
ARTIST:     Lady Gaga
ALBUM:      Artpop
TABBED BY:  Zanzulfanten
TUNING:     Standard (E,A,D,G,B,e)



---Intro / Verse (Repeated until chorus)

E|-------------------------|------------------------|
B|-------------------------|------------------------|
G|--0--0--0--2--2--2--3--3-|-3--3--3--3--3--3--3--2-|
D|--5--5--5--3--3--3--1--1-|-1--1--1--1--1--1--1--1-|
A|-------------------------|------------------------|
E|-------------------------|------------------------|


E|-------------------------|------------------------|
B|--------3--------3-------|------------------------|
G|--3--3-----2--2-----0--0-|-0--0--0--0--0--0--0----|
D|--1--1--1--3--3--3--5--5-|-5--5--5--5--5--5--5--3-|
A|-------------------------|------------------------|
E|-------------------------|------------------------|



---Chorus (CHORDS)

    Gimme that thing that I love   (Turn the lights on)
E|-----------------------------|-----------------------|
B|--11-----11-----10--10--x--8-|---8-----8--8-----8----|
G|--12-----12-----10--10--x--8-|---8-----8--8-----8----|
D|--12-----12-----10--10--x--8-|---8-----8--8-----8----|
A|--10-----10-----8---8---x--6-|---6-----6--6-----6----|
E|-----------------------------|-----------------------|


    Put your hands..   ..touch    (Make it real loud)
E|----------------------------|-------------------------|
B|--4-----4-----10--10--x--11-|---11-----11--11-----11--|
G|--5-----5-----10--10--x--12-|---12-----12--12-----12--|
D|--5-----5-----10--10--x--12-|---12-----12--12-----12--|
A|--3-----3-----8---8---x--10-|---10-----10--10-----10--|
E|----------------------------|-------------------------| x4



---Chorus (TAB - LEAD SYNTH)

   Gimme that..   ..I love  (Turn the lights on)
E|-----------------------|---------------------|
B|-14-12---11-12---------|---------------------|
G|-----------------10-12-|--12-12---10-10-12---|
D|-----------------------|---------------------|
A|-----------------------|---------------------|
E|-----------------------|---------------------|

   Put your..     ..touch   (Make it real loud)
E|-----------------------|---------------------|
B|-----------------13-11-|--11-11---13-13-11---|
G|---------12-13---------|---------------------|
D|-12-13-----------------|---------------------|
A|-----------------------|---------------------|
E|-----------------------|---------------------| x4
Tap to rate this tab
# A B C D E F G H I J K L M N O P Q R S T U V W X Y Z