Song name
# A B C D E F G H I J K L M N O P Q R S T U V W X Y Z

Lady Lamb The Beekeeper - Taxidermist Taxidermist tab

Standard tuning
Capo 2

Intro:
e|---------------------------------------------------------------------------|
B|--0-----0---------2-----2---------0-----0---------5-3---2---0---0----------|
G|----0-------0---0---0-------0---0---0-------0---0-----0-------0------------|
D|------2---2---2-------2---2---2-------2---2---2----------------------------|
A|------------------0-------------------------------0-------0----------------|
E|--0-------------------------------0----------------------------------------|

e|--------2p0----------------------------------------------------------------|
B|--0---------0---2-------2---2-----0-----0---------7-5---2---0---0----------|
G|----0---------0-----0-----------0---0-------0---0-----0-------0------------|
D|------2---------------2---2---2-------2---2---2----------------------------|
A|------------------0-------------------------------0-------0----------------|
E|--0-------------------------------0----------------------------------------|

Verse:
e|---------------------------------------------------------------------------|
B|--0-----0---------2-----2---------0-----0---------5-3---2---0---0----------|
G|----0-------0---0---0-------0---0---0-------0---0-----0-------0------------|
D|------2---2---2-------2---2---2-------2---2---2----------------------------|
A|------------------0-------------------------------0-------0----------------|
E|--0-------------------------------0----------------------------------------|

  --------2p0----------------------------------------------------------------|
  --0---------0---2-------2---2-----0-----0---------5-3---2---0---0----------|
  ----0---------0-----0-----------0---0-------0---0-----0-------0------------|  x2
  ------2---------------2---2---2-------2---2---2----------------------------|  both lines
  ------------------0-------------------------------0-------0----------------|
  --0-------------------------------0----------------------------------------|

e|---------------------------------------------------------------------------|
B|--0-----0---------2-----2---------0-----0---------5-3---2---0---0----------|
G|----0-------0---0---0-------0---0---0-------0---0-----0-------0------------|
D|------2---2---2-------2---2---2-------2---2---2----------------------------|
A|------------------0-------------------------------0-------0----------------|
E|--0-------------------------------0----------------------------------------|

Pre-chorus:
e|---------------------------------------------------------------------------|
B|---------------------------------------------------------------------------|
G|-----0----0----0---0---0---0---0---0----0----0----0---0---0---0---0---0----|  x3
D|---------------------------------------------------------------------------|
A|-------------------------0-------0--------------------------0-------0------|
E|--12---11---10---7---3-------3-------12---11---10---7---5-------5----------|

e|--------------------------------------------------------------------------------|
B|--------------------------------------------------------------------------------|
G|-----0----0----0---0---0---0---0---0----0----0----0---0-------------------------|
D|--------------------------------------------------------------------------------|
A|-------------------------0-------0----------------------------------------------|
E|--12---11---10---7---3-------3-------12---11---10---7---5~----5~----5~----5--3--|

Chorus:
    Em         C          G            F#
e|------00-22-33---3-000-----------------------------------------------------|
B|------00-00-00---0-000-----3-33-000----00-00-00-0--------------------------|
G|--0---00-00-00---0-000--0--0-00-000----22-22-22-0--------------------------|  x9
D|--2---22-22-22---2-222--0--0-00-000--0-00-00-00-0--------------------------|
A|--2---22-22-23---3-333--2--2-22-222--0-00-00-00-0--------------------------|
E|--0---00-00-0-----------3--3-33-333--2-22-22-22-2--------------------------|

Intro

Verse:
e|---------------------------------------------------------------------------|
B|--0-----0---------2-----2---------0-----0---------5-3---2---0---0----------|
G|----0-------0---0---0-------0---0---0-------0---0-----0-------0------------|
D|------2---2---2-------2---2---2-------2---2---2----------------------------|
A|------------------0-------------------------------0-------0----------------|
E|--0-------------------------------0----------------------------------------|

  --------2p0----------------------------------------------------------------|
  --0---------0---2-------2---2-----0-----0---------5-3---2---0---0----------|
  ----0---------0-----0-----------0---0-------0---0-----0-------0------------|  x2
  ------2---------------2---2---2-------2---2---2----------------------------|  both lines
  ------------------0-------------------------------0-------0----------------|
  --0-------------------------------0----------------------------------------|

Pre-chorus

Chorus x7

End on:
e|---------------------------------------------------------------------------|
B|---------------------------------------------------------------------------|
G|---------------------------------------------------------------------------|
D|--2~-----------------------------------------------------------------------|
A|--2~-----------------------------------------------------------------------|
E|--0~-----------------------------------------------------------------------|
Tap to rate this tab
# A B C D E F G H I J K L M N O P Q R S T U V W X Y Z