Song name
# A B C D E F G H I J K L M N O P Q R S T U V W X Y Z

Lady Lamb The Beekeeper - Would You Bend Your Body Back chords

Highlighted       Show chord diagrams
Standard tuning

Tabbed based on this performance:
http://www.youtube.com/watch?v=ZdUIQDqxoJI

Dm: xx0231
G:  320000
G7: 320001
F:  133211
E:  022100

Intro:
    Dm
e|--1---1---------------1-----1-1-1---1---------------1-----1-1----------------|
B|--3-----3-----------------3-3-3-3-----3-----------------3-3-3----------------|
G|--2---------2-------2-------2-2-0h2-------2-------2-------2-2----------------|
D|--0-------------0-----------0-0-0-------------0-----------0-0----------------|
A|-----------------------------------------------------------------------------|
E|-----------------------------------------------------------------------------|

    G           G7                G             G7
e|--0---0-0-0-0-1-------1---------0---0-0-0-0---1------1--1-1-1----------------|
B|--0---0-0-0-0-----0-------0---0-0---0-0-0-0---0------0--0-0-0----------------|
G|--0---0-0-0-0-------0-------0---0---0-0-0-0---0------0--0-0-0----------------|
D|--0---0-0-0-0-------------------0---0-0-0-0---0---0-----0-0-0----------------|
A|--2---2-2-2-2-------------------2---2-2-2-2---2---------2-2-2----------------|
E|--3---3-3-3-3-------------------3---3-3-3-3---3---------3-3-3----------------|

      Dm
if I wore
            G   G7
if I wore a lion mask
          Dm
would you bend
                    G    G7
would you bend your body back
          F         E           Dm
would you lend your neck to my lips
      G   G7      G
for a time, for tonight
            Dm
oh, oh, oh, oh
           G   G7
oh, little lamb
                    Dm
would you bend your body back
                    G    G7
would you bend your body back

Dm

Dm
I had a dream you were standing right in front of me
Dm
I had a dream you were standing right in front of me
Dm
I had a dream you were standing right in front of me
Dm
I had a dream you were standing right in front of me
G                            G7
snakes were wrapped around my feet
G7                            
snakes were wrapped around my feet

Dm

G7             Dm
oh, oh, little lamb
           G7
oh, little lamb
                    Dm
would you bend your body back
                    Dm
would you bend your body back
                    G    G7
would you bend your body back

End on:
e|--3-3-1-1-1~------------|
B|--0-0-0-0-3~------------|
G|--0-0-0-0-2~------------|
D|--0-0-0-0-0~------------|
A|--2-2-2-2---------------|
E|--3-3-3-3---------------|
Tap to rate this tab
# A B C D E F G H I J K L M N O P Q R S T U V W X Y Z