Song name
# A B C D E F G H I J K L M N O P Q R S T U V W X Y Z

Lady Lamb The Beekeeper - Mezzanine tab

Standard tuning


Note that usually the chord is muted with the fretting hand, but during the intro
and first verse it sounds like it is also lightly palm muted.

x  mute
*  palm mute


Intro:
e|---------------------------------------------------------------------------|
B|---------------------------------------------------------------------------|
G|---------------------------------------------------------------------------|
D|--9-x-x-9-x-x-9-x-x-9-----9-x-x-9-x-x-9-x-x-9-----9-x-x-9-x-x-9-x-x-9------|
A|--9-x-x-9-x-x-9-x-x-9-----9-x-x-9-x-x-9-x-x-9-----9-x-x-9-x-x-9-x-x-9------|
E|--7-x-x-7-x-x-7-x-x-7-0-0-7-x-x-7-x-x-7-x-x-7-0-0-7-x-x-7-x-x-7-x-x-7-0-0--|
    * * * * * * * * * * * * * * * * * * * * * * * * * * * * * * * * * * * *

e|---------------------------------------------------------------------------|
B|---------------------------------------------------------------------------|
G|---------------------------------------------------------------------------|
D|--9-x-x-x-x-x-x-x-x-x-x----------------------------------------------------|
A|--9-x-x-x-x-x-x-x-x-x-x----------------------------------------------------|
E|--7-x-x-x-x-x-x-x-x-x-x-0--------------------------------------------------|
    * * * * * * * * * * *

"There's a ghost..."
e|--------------------------------------------------|
B|--------------------------------------------------|
G|--------------------------------------------------|   x3
D|--9-x-x-9-x-x-9-x---------7-x-x-7-x-x-7-x---------|
A|--9-x-x-9-x-x-9-x---------7-x-x-7-x-x-7-x---------|
E|--7-x-x-7-x-x-7-x---------5-x-x-5-x-x-5-x---------|
    * * * * * * * *         * * * * * * * *

e|---------------------------------------------------------------------------|
B|---------------------------------------------------------------------------|
G|---------------------------------------------------------------------------|
D|--5-x-x-5-----7-x-x-7-----5-x-x-7-x-x--------------------------------------|
A|--5-x-x-5-----7-x-x-7-----5-x-x-7-x-x--------------------------------------|
E|--3-x-x-3-0-0-5-x-x-5-0-0-3-x-x-5-x-x--------------------------------------|

e|---------------------------------------------------------------------------|
B|---------------------------------------------------------------------------|
G|---------------------------------------------------------------------------|
D|--9-x-x-9-x-x-9-x-x-9-----9-x-x-9-x-x-9~----x------------------------------|
A|--9-x-x-9-x-x-9-x-x-9-----9-x-x-9-x-x-9~----x------------------------------|
E|--7-x-x-7-x-x-7-x-x-7-0-0-7-x-x-7-x-x-7~----x------------------------------|

e|---------------------------------------------------------------------------|
B|---------------------------------------------------------------------------|
G|---------------------------------------------------------------------------|
D|---------------------------------------------------------------------------|
A|----9-7-5-4-0----9-7-5-4-0----9-7-5-4-5--7-7-7-7-7-7-7-7-------------------|
E|--7------------7------------7----------------------------------------------|

e|---------------------------------------------------------------------------|
B|---------------------------------------------------------------------------|
G|---------------------------------------------------------------------------|
D|---------------------------------------------------------------------------|
A|----9-7-5-4-0----9-7-5-4-0----9-7-5-4-5--7---7-7-7-7-7-0-------------------|
E|--7------------7------------7----------------------------------------------|

e|---------------------------------------------------------------------------|
B|---------------------------------------------------------------------------|
G|---------------------------------------------------------------------------|
D|---------------------------------------------------------------------------|
A|------5---3---2---1------0-----------5---3---2---1---0-1-0-----------------|
E|--3--------------------------0---3-----------------------------------------|

e|---------------------------------------------------------------------------|
B|---------------------------------------------------------------------------|
G|---------------------------------------------------------------------------|
D|---------------------------------------------------------------------------|
A|------5---3---2---1------0---1---5---5---5---5---5br---5---5br-----0~------|
E|--3------------------------------------------------------------------------|

e|---------------------------------------------------------------------------|
B|---------------------------------------------------------------------------|
G|---------------------------------------------------------------------------|
D|--9-x-x-9-x-x-9-x-x-9-----9------------------------------------------------|
A|--9-x-x-9-x-x-9-x-x-9-----9------------------------------------------------|
E|--7-x-x-7-x-x-7-x-x-7-0-0-7------------------------------------------------|

"How I ache..."
e|---------------------------------------------------|
B|---------------------------------------------------|
G|---------------------------------------------------|   x3
D|--9-x-x-9-x-x-9~----------7-x-x-7-x-x-7~-----------|
A|--9-x-x-9-x-x-9~----------7-x-x-7-x-x-7~-----------|
E|--7-x-x-7-x-x-7~--------0-5-x-x-5-x-x-5~--------0--|

e|---------------------------------------------------------------------------|
B|---------------------------------------------------------------------------|
G|---------------------------------------------------------------------------|
D|--5-----5-----7-----7-----5-----7------------------------------------------|
A|--5-----5-----7-----7-----5-----7------------------------------------------|
E|--3-0-0-3-0-0-5-0-0-5-0-0-3-0-0-5-0-0--------------------------------------|

e|---------------------------------------------------------------------------|
B|---------------------------------------------------------------------------|
G|---------------------------------------------------------------------------|
D|--9-x-x-9-x-x-9-x-x-9-----9-x-x-9-x-x-9~----9------------------------------|
A|--9-x-x-9-x-x-9-x-x-9-----9-x-x-9-x-x-9~----9------------------------------|
E|--7-x-x-7-x-x-7-x-x-7-0-0-7-x-x-7-x-x-7~----7------------------------------|

e|---------------------------------------------------------------------------|
B|---------------------------------------------------------------------------|
G|---------------------------------------------------------------------------|
D|---------------------------------------------------------------------------|
A|----9-7-5-4-0----9-7-5-4-0----9-7-5-4-5--7-7-7-7-7-7-7-7-------------------|
E|--7------------7------------7----------------------------------------------|

e|---------------------------------------------------------------------------|
B|---------------------------------------------------------------------------|
G|---------------------------------------------------------------------------|
D|---------------------------------------------------------------------------|
A|----9-7-5-4-0----9-7-5-4-0----9-7-5-4-5--7---7-7-7-7-7-0-------------------|
E|--7------------7------------7----------------------------------------------|

e|---------------------------------------------------------------------------|
B|---------------------------------------------------------------------------|
G|---------------------------------------------------------------------------|
D|---------------------------------------------------------------------------|
A|------5---3---2---1------0-----------5---3---2---1---0-1-0-----------------|
E|--3--------------------------0---3-----------------------------------------|

e|---------------------------------------------------------------------------|
B|---------------------------------------------------------------------------|
G|---------------------------------------------------------------------------|
D|---------------------------------------------------------------------------|
A|------5---3---2---1------0---1---5---5---5---5---5br---5---5br-----0~------|
E|--3------------------------------------------------------------------------|

e|---------------------------------------------------------------------------|
B|---------------------------------------------------------------------------|
G|---------------------------------------------------------------------------|
D|--9-x-x-9-x-x-9-x-x-9-----9-x-x-9-x-x-9-x-x-9------------------------------|
A|--9-x-x-9-x-x-9-x-x-9-----9-x-x-9-x-x-9-x-x-9------------------------------|
E|--7-x-x-7-x-x-7-x-x-7-0~--7-x-x-7-x-x-7-x-x-7-0-0--------------------------|

e|---------------------------------------------------------------------------|
B|---------------------------------------------------------------------------|
G|---------------------------------------------------------------------------|
D|--9-x-x-9-x-x-9-x-x-9-----9-x-x-x-x-x-x-x-x-x-x----------------------------|
A|--9-x-x-9-x-x-9-x-x-9-----9-x-x-x-x-x-x-x-x-x-x----------------------------|
E|--7-x-x-7-x-x-7-x-x-7-0-0-7-x-x-x-x-x-x-x-x-x-x----------------------------|

"You are sweet..."
e|--------------------------------------------------|
B|--------------------------------------------------|
G|----[bass guitar]---------------------------------|
D|--------------------------------------------------|
A|--------------------------------------------------|
E|--------------------------------------------------|

"...death of my dread..."
e|--------------------------------------------------|
B|--------------------------------------------------|
G|--------------------------------------------------|   x2
D|--5~----------------------7~----------------------|
A|--5~----------------------7~----------------------|
E|--3~----------------------5~----------------------|

e|---------------------------------------------------------------------------|
B|---------------------------------------------------------------------------|
G|---------------------------------------------------------------------------|
D|--5-----7-----9-x-x-9-x-x-9-x-x-9-----9-x-x-9------------------------------|
A|--5-----7-----9-x-x-9-x-x-9-x-x-9-----9-x-x-9------------------------------|
E|--3-0-0-5-0-0-7-x-x-7-x-x-7-x-x-7-0-0-7-x-x-7-0-0--------------------------|

e|---------------------------------------------------------------------------|
B|---------------------------------------------------------------------------|
G|---------------------------------------------------------------------------|
D|--3/5-55-5---3/5-55-5---3/5-55-5---3/5-5-5/7-7-9---------------------------|
A|--3/5-55-5---3/5-55-5---3/5-55-5---3/5-5-5/7-7-9---------------------------|
E|--1/3-33-3-0-1/3-33-3-0-1/3-33-3-0-1/3-3-3/5-5-7---------------------------|
Tap to rate this tab
# A B C D E F G H I J K L M N O P Q R S T U V W X Y Z