Song name
# A B C D E F G H I J K L M N O P Q R S T U V W X Y Z

Lady Lamb The Beekeeper - Florence Berlin chords

Highlighted       Show chord diagrams
Standard tuning
Capo 6

    G                F#               F                Em         A7
e|----------------------------------------------------------------0-0---000--|
B|----33-330-003-333---33-330-003-333---33-330-003-333---0---000--2-2---222--|
G|----00-000-000-000---22-222-222-222---22-222-222-222---0---000--0-0---000--|
D|----00-000-000-000---00-000-000-000---00-000-000-000---2---222--2-2---222--|
A|----22-222-222-222-------------------------------------2---222--0-0---000--|
E|--3-33-333-333-333-2----------------1----------------0-0---000-------------|


G                          F#                        F       Em    A7
  you are my grandfather's son and for that reason I need you near

G F# F Em A7
oooooh

G                  F#                   F                      Em   A7
  and on my insides I am haggard and on some insides there are vultures
G                          F#           F                Em  A7
  if they begin to ravage your love don't cower or run for cover
G                            F#          F     Em    A7
  don't feel bad you've gotta drown or smother them

G F# F Em A7
oooooh

G                          F#                      F
  and I can't say whether I believe hearts are cultured
                      Em                 A7
I can't say whether I care or whether it matters
G                        F#                         F               Em  A7
  maybe hearts are better, better bitter, battered, filthy, vulgar
G                    F#                        F    Em          A7
  maybe that's why the broken lonely ones they hold on a little longer

G F# F Em A7
oooooh

C                G
  and all I know, all I know
C            G
  all I know, all I know
C            G
  all I know, all I know

e|-----------|
B|-----------|
G|-----------|
D|--0---0----|
A|----2---2--|
E|-----------|

C                    G
  is I wanna see you, I wanna see you
C                 G
  I wanna see you, I wanna see you
C                     G
  and I wanna see you, I wanna see you
C       G            C    G
see all those countries

e|-----------|
B|-----------|
G|-----------|
D|--0--------|
A|----2---2--|
E|------3----|

G F# F Em A7

G                          F#                                   F
  and maybe I'm my own mother and I will always take care of my brother
    Em         A7         G
but you are my family now too
                        F#                  F         Em     A7
and how I loved you then and how I will and how I do, how I do

G F# F Em A7
oooooh

End on G
Tap to rate this tab
# A B C D E F G H I J K L M N O P Q R S T U V W X Y Z