Song name
# A B C D E F G H I J K L M N O P Q R S T U V W X Y Z

Lady Lamb The Beekeeper - You Are The Apple tab

Standard tuning
Capo 5

*  palm mute
.  staccato

Listen or watch on youtube for strumming and muting patterns, and also look for where she lifts
her fingers off of the bass notes of some chords, since it's not very accurately tabbed here.

Intro:
e|------------------------------------------------------------------------------|
B|--5-5-5-55-555-5-55--5-5-5-55-555-5-55--3-3-3-33-333-3-33--3-3-3-33-333-3-33--|
G|--4-4-4-44-444-4-44--0-0-0-00-000-0-00--0-0-0-00-000-0-00--0-0-0-00-000-0-00--|
D|--0-0-0-00-000-0-00--0-0-0-00-000-0-00--0-0-0-00-000-0-00--0-0-0-00-000-0-00--|
A|--5-5-5-55-555-5-55--4-4-4-44-444-4-44--2-2-2-22-222-2-22--2-2-2-22-222-2-22--|
E|---------------------5-5-5-55-555-5-55--3-3-3-33-333-3-33--3-3-3-33-330-2-00--|
    * *      ***       * *      ***       * *      ***       * *

"you loved me best...":
e|---------------------------------------------------------------------------|
B|--5-5-5--------------5-5-5--------------1-1-11--0-0-00--0-0-00--00-0-0-0---|
G|--4-4-4--------------0-0-0--------------0-0-00--0-0-00--0-0-00--00-0-0-0---|  x2
D|--0-0-0--------------0-0-0--------------2-2-22--0-0-00--0-0-00--00-0-0-0---|
A|--5-5-5--------------4-4-4--------------3-3-33--2-2-22--2-2-22--22-2-2-2---|
E|---------------------5-5-5----------------------3-3-33--3-3-33--33-0-2-0---|
    * *                * *

e|---------------------------------------------------------------------------|
B|--5555~--5-55--5555~--5-55--3333~--3-33-3333-3333333-----------------------|
G|--4444~--4-44--0000~--0-00--0000~--0-00-0000-0000000-----------------------|  x2
D|--0000~--0-00--0000~--0-00--0000~--0-00-0000-0000000-----------------------|
A|--5555~--5-55--4444~--4-44--2222~--2-22-2222-2222222-----------------------|
E|---------------5555~--5-55--3333~--3-33-3333-3333020-----------------------|

e|-----------------------------------------------------------------
B|--0--0-----------------------------------------------------------
G|--0--0-----------------------------------------------------------
D|--2--2---2------5--5---5-5----9--10--1010\9-9-10-10\9-9----------
A|--2--2---2-------------------------------------------------------
E|--0--0---0-2/3--3--5---3-3/7--7--8---8-8-\7-7-8--8-\7-7-0--------

  -----------------------------------------------------------------|
  --0--0-----------------------------------------------------------|
  --0--0-----------------------------------------------------------|  x3 (both lines)
  --2--2---2------5--5---5-5----7--7---7-7\5-5/7--7--5-5-----------|
  --2--2---2-------------------------------------------------------|
  --0--0---0-2/3--3--5---3-3/5--5--5---5-5\3-3/5--5--3-3-0---------|

second guitar comes in at "had we crashed into the ocean...":
e|------------------|---------------------------|---------|------------------|
B|--3---------------|--3------------------------|---------|--3---------------|
G|------2br---0~----|------2br---0~-------2~----|--2b~----|------2br---0~----|
D|------------------|---------------------------|---------|------------------|
A|------------------|---------------------------|---------|------------------|
E|------------------|---------------------------|---------|------------------|

"it would have saved me..." (this is what she plays live to imitate the strings section):
e|----------------5--5---5-5-5--3--3---3-3-3-3/5-5-5---0-0-0-----------------|
B|--5--5---5-5-5--5--5---5-5-5--3--3---3-3-3-3/5-5-5---0-0-0-----------------|
G|--4--4---4-4-4--6--6---6-6-6--0--0---0-0-0-0---0-0---0-0-0-----------------|
D|--0--0---0-0-0--7--7---7-7-7--0--0---0-0-0-0---0-0-------------------------|
A|--5--5---5-5-5-------------------------------------------------------------|
E|---------------------------------------------------------------------------|

e|----------------5--5---5-5-5--3--3---3-3-3-3/5-5/7-7-0-0-0-----------------|
B|--5--5---5-5-5--5--5---5-5-5--3--3---3-3-3-3/5-5/7-7-0-0-0-----------------|
G|--4--4---4-4-4--6--6---6-6-6--0--0---0-0-0-0---0---0-0-0-0-----------------|
D|--0--0---0-0-0--7--7---7-7-7--0--0---0-0-0-0---0---0-----------------------|
A|--5--5---5-5-5-------------------------------------------------------------|
E|---------------------------------------------------------------------------|

e|----------------5--5---5-5-5--3--3---3-3-3-3/5-5/7-7/10-10-0---------------|
B|--5--5---5-5-5--5--5---5-5-5--3--3---3-3-3-3/5-5/7-7/10-10-0---------------|
G|--4--4---4-4-4--6--6---6-6-6--0--0---0-0-0-0---0---0----0--0---------------|
D|--0--0---0-0-0--7--7---7-7-7--0--0---0-0-0-0---0---0----0------------------|
A|--5--5---5-5-5-------------------------------------------------------------|
E|---------------------------------------------------------------------------|

e|----------------5--5---5-5-5--3--3---3-3-3-3---5---7---10---12---12---12---|
B|--5--5---5-5-5--5--5---5-5-5--3--3---3-3-3-3---5---7---10---12---12---12---|
G|--4--4---4-4-4--6--6---6-6-6--0--0---0-0-0---------------------------------|
D|--0--0---0-0-0--7--7---7-7-7--0--0---0-0-0---------------------------------|
A|--5--5---5-5-5-------------------------------------------------------------|
E|---------------------------------------------------------------------------|

Interlude (play twice):
   Em          G          C                        Em          G          Am
e|---0----------------------0------------------------0--------------------------------|
B|-0--/3-0----------------0--/3-0------------------0--/3-0----------------------0---0-|
G|---------2p0-2p0-2/4-0----------2p0-2p0-2/4-2-0----------2p0-2p0-2/4-0--3b-3b-3-3-0-|
D|------------------------------------------------------------------------------------|
A|------------------------------------------------------------------------------------|
E|------------------------------------------------------------------------------------|

Breakdown:
    Em             C              G                         F#
e|--0--0--0--0-00--0--0--0--0-00-------------------------------------|
B|--0--0--0--0-00--1--1--1--1-11--0--0--0--0-00--0--0--0000-0-0------|
G|--0--0--0--0-00--0--0--0--0-00--0--0--0--0-00--0--0--0000-0-0------|  x2
D|--2--2--2--2-22--2--2--2--2-22--0--0--0--0-00--0--0--0000-0-0-0----|
A|--2--2--2--2-22--3--3--3--3-33--2--2--2--2-22--2--2--2222-2-2-2----|
E|--0--0--0--0-00-----------------3--3--3--3-33--3--3--3333-2-2-0----|

    Em             C              G
e|--0--0--0--0-00--0--0--0--0-00----0---------------0----------------|
B|--0--0--0--0-00--1--1--1--1-11--0-0-3--0--0-00--0-0-3--0--0-00-----|
G|--0--0--0--0-00--0--0--0--0-00--0---0--0--2-20--0---0--0--2-20-----|  x2
D|--2--2--2--2-22--2--2--2--2-22--0---0--0--0-00--0---0--0--0-00-----|
A|--2--2--2--2-22--3--3--3--3-33--2---------------2------------------|
E|--0--0--0--0-00-----------------3---------------3------------------|

"my heart so poor...":
e|--0--------------0-0--------------0---------------0----------------|
B|--0--------------1-1------------0-0-3--0--0-00--0-0-3--0--0000-----|
G|--0--------------0-0------------0---0--0--2-20--0---0--0--2020-----|
D|--2--------------2-2------------0---0--0--0-00--0---0--0--0000-----|
A|--2--------------3-3------------2---2--2--2-22--2---2--2--2222-----|
E|--0-----------------------------3---3--3--3-33--3---3--3--3333-----|
    .              . .

e|--0-0------------0-0-0------------0---------------0----------------|
B|--0-0------------1-1-1----------0-0-3--0--0-00--0-0-3--0--0000-----|
G|--0-0------------0-0-0----------0---0--0--2-20--0---0--0--2020-----|
D|--2-2------------2-2-2----------0---0--0--0-00--0---0--0--0000-----|
A|--2-2------------3-3-3----------2---2--2--2-22--2---2--2--2222-----|
E|--0-0---------------------------3---3--3--3-33--3---3--3--3333-----|
    . .            . . .

e|-----------------0--0--0--00---------------------------------------|
B|--0--0--0--00----1--1--1--11----0--0--0--00----000000000000--------|
G|--0--0--0--0000--0--0--0--0000--0--0--0--0000--000000000000--------|
D|--2--2--2--2200--2--2--2--2200--0--0--0--0000--000000000000--------|
A|--2--2--2--2200--3--3--3--3300--2--2--2--2222--222222222222--------|
E|--0--0--0--0000-----------------3--3--3--3300--330033222200--------|

"I only have eyes for you...":
e|-----------------0--0--0--00------0---------------0----------------|
B|--0--0--0--00----1--1--1--11----0-0-3--0--0-00--0-0-3--0--0000-----|
G|--0--0--0--0000--0--0--0--0000--0---0--0--2-20--0---0--0--2020-----|  x2
D|--2--2--2--2200--2--2--2--2200--0---0--0--0-00--0---0--0--0000-----|
A|--2--2--2--2200--3--3--3--3300--2---2--2--2-22--2---2--2--2222-----|
E|--0--0--0--0000-----------------3---3--3--3-33--3---3--3--3333-----|

strings come in on C here:
    Em             C              G                     F#
e|-----------------0--0--000000--------------------------------------|
B|--0--0--0--00----1--1--111111---0--0--0--00000--000000000000-------|
G|--0--0--0--0000--0--0--000000---0--0--0--00000--000000000000-------|
D|--2--2--2--2200--2--2--222222---0--0--0--00000--000000000000-------|
A|--2--2--2--2200--3--3--333333---2--2--2--22222--222222222222-------|
E|--0--0--0--0000-----------------3--3--3--33333--333333222200-------|
                         ......

strum the same chord progression throughout the strings interlude

after strings fade (listen for strumming/muting pattern here)
"you devoured my heart...":
    Em             C              G
e|--0--0--0--00----0--0--0--00------0---------------0----------------|
B|--0--0--0--00----1--1--1--11----0-0-3--0--0-00--0-0-3--0--0-00-----|
G|--0--0--0--0000--0--0--0--0000--0---0--0--2-20--0---0--0--2-20-----|  x2
D|--2--2--2--2200--2--2--2--2200--0---0--0--0-00--0---0--0--0-00-----|
A|--2--2--2--2200--3--3--3--3300--2---------------2------------------|
E|--0--0--0--0000-----------------3---------------3------------------|


"I still need your teeth round my organs"
same chords as before but F# is played the same duration as the other chords:
Em C G F# (22000x)

"I still need your love..." outro:
    Em             C              G
e|--0--0--0--00----0--0--0--00------0---------------0---------------|--0~--|
B|--0--0--0--00----1--1--1--11----0-0-3--0--0-00--0-0-3--0--0--0----|--0~--|
G|--0--0--0--0000--0--0--0--0000--0---0--0--2-20--0---0--0--2p02p0--|--0~--|
D|--2--2--2--2200--2--2--2--2200--0---0--0--0-00--0---0--0--0--0----|--2~--|
A|--2--2--2--2200--3--3--3--3300--2---------------2-----------------|--2~--|
E|--0--0--0--0000-----------------3---------------3-----------------|--0~--| 
Tap to rate this tab
 
# A B C D E F G H I J K L M N O P Q R S T U V W X Y Z