Song name
# A B C D E F G H I J K L M N O P Q R S T U V W X Y Z

Lady Lamb The Beekeeper - A Dinosaur Song tab

Standard tuning
Capo 7

The picking pattern here is different from the "Samples for Handsome Animals"
version, but the chords are the same.

Based on live performances like this one:
http://www.youtube.com/watch?v=jzk-UEm6A68#t=169


Intro (the pattern varies throughout the song, but this is the main idea):
    G
e|-----------0-----------------------0---------------------|
B|--0-----------3-----0-----0-----------3-----0------------|
G|-----0-----------0-----0-----0-----------0-----0---------|
D|---------------------------------------------------------|
A|--------2-----------2-----------2-----------2------------|
E|--3-----------3-----------3-----------3------------------|

    Am
  --------------------------------------------------------|
  --1--------3-----1--------0-h1-----3-----1--0h1---------|
  -----2-----------------2--------2--------------2--------|
  --------2-----------2-----------------------------------|
  --0-----------0-----------0-----------0-----0-----------|
  --------------------------------------------------------|


   G
I'd like to tie today up in my hair,
Am
  like to collect the hours we still could dance
G                     Am
  for a jam jar on my nightstand.
    G
I'd like to fly my spine like a kite,
          Am                                             G
want to see you walk through that doorway and into this room
                       Am
where I am waiting for you. You like the sea.

            Em
And how the sea began with a drop of sweat
              C
soaked into a cloth swiped across the brow of God
           Em
and how he wrung it out into sharp teeth to scales
            C
and how the carnivore was born.

           G
And how he flung us forward into day and night
           Am
and how we floated down as if hot air balloons
     G                       Am
with consciences like faulty landings.

   Em Am   C               Am           G        Am
Our bodies skin thin and desirable, how I desire you.
   Em Am    C                  Am          C      Am  C
Our bodies, thin-skinned and desirable how I, how I desire you.

G Am G Am
End on G
Tap to rate this tab
# A B C D E F G H I J K L M N O P Q R S T U V W X Y Z