Song name
# A B C D E F G H I J K L M N O P Q R S T U V W X Y Z

Lady Of The Sunshine - Home Sweet Home tab

----------------------------------------------------------------------------
			     Home Sweet Home - Lady of the Sunshine
----------------------------------------------------------------------------
Tabbed by: Breno
Email: brennansmart@hotmail.com

**Note to the UG editors!**
there isnt an official website for lady of the sunshine, but heres the myspace URL:
http://www.myspace.com/ladyofthesunshine


Tuning: Drop D (DADGBe)
Capo: 1st Fret

Hello there!
This is a new song from Angus Stones new solo project called Lady of the
Sunshine, off the album "Smoking Gun". This is the first tab on this site
for Lady of the Sunshine, so ill try put some of the other ones up soon. If
you have any problems or corrections, leave a comment or email me.

and please, please rate this tab!

Capo at 1st (tab relative to capo)

Intro and Verse

e|------5------5---7-7-----5-5----5------0-----0---2-2---0-0---0-|
B|---------------------------------------------------------------|
G|--0-0----0-0---0-----0--------0--------------------------------|
D|-----------------------------------0-0---0-0---0-----0-----0---|
A|---------------------------------------------------------------|
D|---------------------------------------------------------------|

Chorus: Not actually sure whether these chords are played by guitar, but 
they definetly match the notes played on the bass.

e|----------------------------|
B|----------------------------|
G|----------------------------|
D|----4---------4-------------|
A|----0---------x-------------|
E|----0---------5-------------|

Also played throughout chorus, over the top of the chords
Change from open to 5th each time the chord changes

e|--0--0--0--0--0--0---5--5--5--5--5--5--5--------------------|
B|------------------------------------------------------------|

The End   :)
Tap to rate this tab
 
# A B C D E F G H I J K L M N O P Q R S T U V W X Y Z