Song name
# A B C D E F G H I J K L M N O P Q R S T U V W X Y Z

Lady Of The Sunshine - Jack Nimble tab

Jack Nimble - Lady Of The Sunshine
a rad tune off the album Smoking Gun

Tuning Drop D (DADGBE)
Capo on 1st (everything is in relation to the capo)

Ill post some more of this album when i have time to
write it down. if you know some good tab creating software
give me a yell.


Intro

|----------------------------------------------|
|----------------------------------------------|
|----------------------------------------------|
|------6b7b6------9b10b9------5b6b5------6b7b6-|
|----4----------7-----------2----------4-------|
|--4----------7-----------2----------4---------|

|---------------------------------------------|
|---------------------------------------------|
|---------------------------------------------|
|------6b7b6------9b10b9------5b6b5------6----|b7Hold
|----4----------7-----------2----------4------|
|--4----------7-----------2----------4--------|

|--------------------------------------------|
|--------------------------------------------|
|--------------------------------------------|
|----4-----4---4-----4---9-----11---9-----11-|
|------4---------4---------7----------7------|
|--4-----4---4-----4---7-----7----7-----7----|

|------------------------------------------|
|------------------------------------------|
|------------------------------------------|
|----6-----6---6-----6---7-----7---7-----7-|
|------2---------2---------4---------4-----|
|--2-----2---2-----2---4-----4---4-----4---|

|----------------------------------------------|
|----------------------------------------------|
|----------------------------------------------|
|----4------4---4------4---9-----11---9-----11-|
|------7p4--------7p4--------7----------7------|
|--4----------4----------7-----7----7-----7----|

|------------------------------------------|
|------------------------------------------|
|------------------------------------------|
|----6-----6---6-----6---7-----7---7-----7-|
|------2---------2---------4---------4-----|
|--2-----2---2-----2---4-----4---4-----4---|

Verse - play this bit 4x

I think angus plays this verse bit with the same picking
pattern as the intro, but is is much easier to sing over
the top if you play it like this


|----------------------------------|
|----------------------------------|
|----------------------------------|
|----4---4---4---4---7---7---7---7-|
|----4---4---4---4---7---7---7---7-|
|--4---4---4---4---7---7---7---7---|

|----------------------------------|
|----------------------------------|
|----------------------------------|
|----2---2---2---2---4---4---4---4-|
|----2---2---2---2---4---4---4---4-|
|--2---2---2---2---4---4---4---4---|

Slide between the chord changes as well.


Interludey thing
Play it twice
and slide between the chord changes again

|------------------------------------------|
|------------------------------------------|
|------------------------------------------|
|----6-----6---6-----6---7-----7---7-----7-|
|------2---------2---------4---------4-----|
|--2-----2---2-----2---4-----4---4-----4---|


Verse x4


Then angus cuts sick with effects and shit. my amp blew up
so i dont think i will be tabbing that bit for a while.
that or the banjo-sounding riff. if you know how to play either
of these bits, give me a shout and ill add them in. anyway, this
is a start


storz
Tap to rate this tab
# A B C D E F G H I J K L M N O P Q R S T U V W X Y Z