Song name
# A B C D E F G H I J K L M N O P Q R S T U V W X Y Z

Lady Of The Sunshine - Big Jet Plane tab

Big Jet Plane - Lady Of The Sunshine

Capo on 1st (all notes in relation to the capo)

Tuning Drop D (DADGBE)

Intro/verse/chorus which is just repeated through pretty much the whole song

Palm Mute
|-------------------------------------------------------------------------|
|-------------------------------------------------------------------------|
|-------------------------------------------------------------------------|X3
|-------------------------------------------------------------------------|
|--10-10-10-10-10-10-10-0-7-7-7-7-7-7-7-0-2-2-2-2-2-2-2-2-2-2-2-2-2-2-2-2-|
|--10-10-10-10-10-10-10-0-7-7-7-7-7-7-7-0-2-2-2-2-2-2-2-2-2-2-2-2-2-2-2-2-|

|-------------------------------------------------------------------------|
|-------------------------------------------------------------------------|
|-------------------------------------------------------------------------|
|-------------------------------------------------------------------------|
|--10-10-10-10-10-10-10-0-7-7-7-7-7-7-7-0-2-2-2-2-2-2-2-2/5-5-5-5-5-5-5-5-|
|--10-10-10-10-10-10-10-0-7-7-7-7-7-7-7-0-2-2-2-2-2-2-2-2/5-5-5-5-5-5-5-5-|

Then there is that little riff over the top
|----------------------------------------------------------|
|-/8-5-8--------/8-5-8--------/8-5-8--------/8-5-8---------|
|--------4-5-----------7-5-----------4-5-----------7-5-4/5-|
|----------------------------------------------------------|
|----------------------------------------------------------|
|----------------------------------------------------------|


Then that is pretty much it till you get till this little break where angus goes

|------------------------------------------------------------------|
|--1------3--------------------------------------------------------|
|--2------4--------------------------------------------------------|
|--3------5-------10-10-10-10-10-10-10-10-12-12-12-10-10-10-9-10---|
|--3------5-------7--7--7--7--7--7--7--7--7--7--7--7--7--7--7--7---|  X2
|-----------------7--7--7--7--7--7--7--7--7--7--7--7--7--7--7--7---|

Then play it twice more except strum the first two chords

Finish with that first palm mute bit and you are done

Listen to the song and you will get the idea. enjoy

Storz
Tap to rate this tab
# A B C D E F G H I J K L M N O P Q R S T U V W X Y Z