Song name
# A B C D E F G H I J K L M N O P Q R S T U V W X Y Z

Lady Of The Sunshine - Smoking Gun tab

Smoking Gun - Lady Of The Sunshine

The title track of their debut album

Tuning - drop d (DADGBE)

Capo on 1st fret

Intro
|-------------------------------------1-1-1-1-1-|
|-------------------------------------2-2-2-2p1-|
|--6--8-x-x-----3-3-1-1----6--8-x-x---1-1-1-1-1-|
|--4--6-x-x---1-1-1-1-1----4--6-x-x---1-1-1-1-1-|
|--4--6-x-x-1-1-1-1-1-1----4--6-x-x-1-1-1-1-1-1-|
|--4--6-x-x-1-1-1-1-1-1----4--6-x-x-1-1-1-1-1-1-|
Play it twice


Verse 1 (lightly mute)
|-----------------------|
|-----------------------|
|-----------------------|
|-----------------------|
|--4--6-x-x-1-1-1-1-1-1-|
|--4--6-x-x-1-1-1-1-1-1-|
Play it 3 times then play
|-------------|
|-------------|
|-------------|
|-------------|
|--4--6-x-x-1-|
|--4--6-x-x-1-|

Interlude
Play the Intro riff once

Verse 2
same as verse 1

Interlude
Same as the first one


Pre chorus (lightly mute)
|----------------------------------|
|----------------------------------|
|----------------------------------|
|----------------------------------|
|--4-4-4-4-4-4-4-4-6-6-6-6-6-6-6-6-|
|--4-4-4-4-4-4-4-4-6-6-6-6-6-6-6-6-|
Play 3 times then
|--------------------|
|--------------------|
|--------------------|
|--------------------|
|--4-4-4-4-4-4-4-4-6-|
|--4-4-4-4-4-4-4-4-6-|

Intro riff x2

solo 1
|--------------------------------------------------|
|--11-11-11-11-11-11-11-11-10-10-10-10-10-10-10-10-|
|--------------------------------------------------|
|--------------------------------------------------|
|--------------------------------------------------|
|--------------------------------------------------|

|------------------------------|
|--6-6-6-6-6-7-7-7-11-11-11-11-|
|------------------------------|
|------------------------------|
|------------------------------|
|------------------------------|


Verse 3
Intro riff x3


Pre chorus
same as the first one


Interlude
Intro riff x2


Solo 2
|-------------------------------------------------------------|
|--11-------9-7-9---4---------11----14-11---9-7-9----4---2-4--|
|-------------------------------------------------------------|
|-------------------------------------------------------------|
|-------------------------------------------------------------|
|-------------------------------------------------------------|
Just mess around with the chords in the verses for the rhythm under the solo


Pre Chorus
same as the other ones
and you are done

Hope this was useful

Storz
Tap to rate this tab
# A B C D E F G H I J K L M N O P Q R S T U V W X Y Z