Song name
# A B C D E F G H I J K L M N O P Q R S T U V W X Y Z

Lady Of The Sunshine - Jack Nimble tab

My first tab...

Intro:
e|-----------------------------------------------------------------------|
B|-----------------------------------------------------------------------|
G|----------2b3b2-----------------------5b6b5----------------------------|
D|-------0---------------------------0-----------------------------------|
A|-----------------------------------------------------------------------|
E|-----3------------------------3--6-------------------------------------|

-------------------------------------------------------------------------|
-------------------------------------------------------------------------|
------------2b3b2-----------------------2b3b2----------------------------|
---------0---------------------------0-----------------------------------|
-------------------------------------------------------------------------|
----6--1------------------------1--3-------------------------------------|

-------------------------------------------------------------------------|
-------------------------------------------------------------------------|
------------2b3b2-----------------------5b6b5----------------------------|
---------0---------------------------0-----------------------------------|
-------------------------------------------------------------------------|
-------3------------------------3--6-------------------------------------|

-------------------------------------------------------------------------|
-------------------------------------------------------------------------|
------------2b3b2-----------------------2b3------------------------------|
---------0---------------------------0-----------------------------------|
-------------------------------------------------------------------------|
----6--1------------------------1--3-------------------------------------|

Verse (Muted):
| -----------------------------------------------------------------------|
| -----------------------------------------------------------------------|
|*-------0-------0-------0-------0-------5---7-------5---7---------------|
|*----------3p0-------------3p0------------0-----------0-----------------|
| -----------------------------------------------------------------------|
| ----3---------------3---------------6-----------6----------------------|
                                                                     (repeat)
------------------------------------------------------------------------- |
------------------------------------------------------------------------- |
-------2-----2-------2-----2-------3-----3-------3-----3-----------------*|
----------0-------------0-------------0-------------0--------------------*|
------------------------------------------------------------------------- |
----1-------------1-------------3-------------3-------------------------- |

Verse (Distortion):
-------------------------------------------------------------------------|
-------------------------------------------------------------------------|
---------0-------0-------0-------0-------5---7-------5---7---------------|
------------3p0-------------3p0------------0-----------0-----------------|
-------------------------------------------------------------------------|
------3---------------3---------------6-----------6----------------------|

-------------------------------------------------------------------------|
-------------------------------------------------------------------------|
-------2-----2-------2-----2-------3-----3-------3-----3-----------------|
----------0-------------0-------------0-------------0--------------------|
-------------------------------------------------------------------------|
----1-------------1-------------3-------------3--------------------------|

I haven't really put when everything is but if you listen you'll be able to pick it up. 
is mostly the same progression anyway... and timing is everything, especially for the 
pattern.

... soooo how is it??
Tap to rate this tab
# A B C D E F G H I J K L M N O P Q R S T U V W X Y Z