Song name
# A B C D E F G H I J K L M N O P Q R S T U V W X Y Z

Lady Of The Sunshine - Anna tab

Capo 2 - tab relative to the capo

Intro/Verse

e|----------------------0--0-0---|
B|------5--5-5-5--5-5---0--0-0---|
G|------4--4-4-4--4-4---0--0-0-0-|
D|--2-2-2--2-2-2--2-2-/-6--6-6-0-|
A|--2-2-2--2-2-2--2-2-/-6--6-6-0-|
D|--2-2-2--2-2-2--2-2-/-6--6-6-0-|

Verse fill

|---------------------------|
|---------------------------|
|--5--4---------------5--4--|
|---------------------------|
|---------------------------|
|---------------------------|

Chorus

e|--0-0-0--0-0-0--0-0-0--0-0-0--0-0-0--0-0-0--0-0-0---------------|
B|--0-0-0--0-0-0--0-0-0--0-0-0--0-0-0--0-0-0--0-0-0--0-0-0-0---0--|
G|--5-5-5--5-5-5--5-5-5--5-5-5--2-2-2--2-2-2--2-2-2--0-2-0-2/4-2--|
D|--5-5-5--5-5-5--5-5-5--5-5-5--2-2-2--2-2-2--2-2-2--0-2-0-2/4-2--|
A|--3-3-3--3-3-3--3-3-3--3-3-3--0-0-0--0-0-0--0-0-0--0-0-0-0---0--|
D|----------------------------------------------------------------|

Chorus fill

|--------------------|
|--------------------|
|--5---4-------------|
|----------7---5---7-|
|--------------------|
|--------------------|

Solo

e|----------------------------------------------------------------------|
B|----------------------------------------------------------------------|
G|--9--7-------12-11-9-7-9--7--------12-11-9-7-9-9-9-9-9-9-9-9-9-9-9-9--|
D|--------9--------------------9----------------------------------------|
A|----------------------------------------------------------------------|
D|----------------------------------------------------------------------|

e|----------------------------------------------------------|
B|----------------------------------------------------------|
G|--12-11-9-7-9--7-------12-11-9-7-9-9-9-9-9-9-9-9-9-9-9-9--|
D|------------------9---------------------------------------|
A|----------------------------------------------------------|
D|----------------------------------------------------------|

e|------------------------|
B|-------------12---------|
G|--12-11-9-------11--12--|
D|----------12------------|
A|------------------------|
D|------------------------|
Tap to rate this tab
 
# A B C D E F G H I J K L M N O P Q R S T U V W X Y Z