Lady Of The Sunshine - Dead Mans Train tab

Dead Mans Train- Lady Of The Sunshine

Tabbed By Cal

CAPO ON 1
Standard Tuning

VERSE + INTRO
e|--0-------------0-----------0--------------------------------------|
B|--1-------------3-----------0--------------------------------------|
G|--0-------------0-----------0--------------------------------------|
D|--2-------------4-----------2-----------4---2---4s5s4--0-----------|
A|--3-------------5-----------2-----------2---2----------------------|
E|--0-------------0-----------0--------------------------------------|

CHORUS
e|---0----------0--------0----------0-------------------------------|
B|---0----------3--------3----------1-------------------------------|
G|---0----------4--------0----------0-------------------------------|
D|---2----------5--------4----------2-------------------------------|
A|---2----------5--------5----------3-------------------------------I
E|---0----------0--------5----------3-------------------------------|


SOLO
e|------3---0---5---0---------------------3-0--5--0-------------------|
B|--------------------3--0h3--3p0---3h5-------------3-0h3-3p0--3h5----|
G|--------------------------------------------------------------------|
D|--------------------------------------------------------------------|
A|--------------------------------------------------------------------|
E|--------------------------------------------------------------------|



ENJOY
Tap to rate this tab
 
# A B C D E F G H I J K L M N O P Q R S T U V W X Y Z