Song name
# A B C D E F G H I J K L M N O P Q R S T U V W X Y Z

Lady Pank - Minus Zero tab

	Intro, verse, chorus

  e     G     D
--7--7--3--3-------------------|
--8--8--3--3--7--7----7-5-7----|
--9--9--4--4--7--7----7-5-7----|
--9--9--5--5--7--7----7-5-7----|
--7--7--5--5--5--5----5---5----|
--------3--3-------------------|

Intro solo

--------------------------------------------------------|  x2
--------------------------------------------------------|
-16-16-16-16-16-16-16-14-16-14--16-16-16-16-16-16-16-19-|
--------------------------------------------------------|
--------------------------------------------------------|
--------------------------------------------------------|

--------------------------|  x3 (Play this afrer second and third chorus)
--------------------------|
-16-16-16-16-16-16-16-19--|
--------------------------|
--------------------------|
--------------------------|

----------------------------------|
----------------------------------|
-16-16-16-16-16-16-16-19-17-16-14-|
----------------------------------|
----------------------------------|
----------------------------------|

Pre chorus:

  C              D           2x
---------------------------|
---------------------------|
---------------------------|
------2--5--2--------4-7---|
--3-3---------3--5-5-------|
---------------------------|

End of main solo

----------------------------------------------------------------|
----------------------------------------------------------------|
-16-16-16-16-16-16-16-14-16-14-16-16-16-16-16-16-16-19\17\16\14-|
----------------------------------------------------------------|
----------------------------------------------------------------|
----------------------------------------------------------------|


---------------------------------------------------------|
---------------------------------------------------------|
-16-16-16-16-16-16-16-14-16-14-16-16-16-16-16-16-16-14~~-|
---------------------------------------------------------|
---------------------------------------------------------|
---------------------------------------------------------|

Verse:

e  G  D
e  G  D
e  G  D
e  G  D


Pre chorus:

C   D
C   D


Chorus:

e  G  D
e  G  D
e  G  D
e  G  D
Tap to rate this tab
 
# A B C D E F G H I J K L M N O P Q R S T U V W X Y Z