Song name
# A B C D E F G H I J K L M N O P Q R S T U V W X Y Z

Lady Sovereign - Love Me Or Hate Me tab

Drop C tuning


The keyboard part is impossible to play on the guitar cause there's not enough range,

The general pattern is: play lick, then play same lick 2 octves lower, then 1 octave higher,

then 1 octave lower.


Keyboards(play 2 octaves higher):

D|--------17-------------------------------------------------------------------|
A|-----------18-17-15----------------------------------------------------------|
F|------------------------------------14---------------------------------------|
C|---------------------------------------15-14-12------------------------------|
G|---17-----------------12-----------------------------------------------------|
C|--------------------------15-14-12----------------7-3-2-0--------------------|




The guitar during verse is just a single C5 chord

guitar(chorus):

D|---------------------------------------------------------------------------|
A|---------------------------------------------------------------------------|
F|---------------------------------------------------------------------------|
C|--0---2-3---3-2----3-5---5-3-2--0------------------------------------------|
G|--0---2-3---3-2----3-5---5-3-2--0------------------------------------------|
C|--0---2-3---3-2----3-5---5-3-2--0------------------------------------------|



Tap to rate this tab
# A B C D E F G H I J K L M N O P Q R S T U V W X Y Z