Song name
# A B C D E F G H I J K L M N O P Q R S T U V W X Y Z

Ladyfuzz - Bouncy Ball tab

Bouncy Ball - Ladyfuzz

|-------------------------------------------|
|-------------------------------------------|
|-------------------------------------------|
|----------8-8------7------7-7--10-10-------|
|------10-------10-----10-------------------|
|-8-8---------------------------------------| X 3

|-------------------------------------------|
|-------------------------------------------|
|-------------------------------------------|
|----------8-8------7------10---------------|
|------10-------10-----10-------------------|
|-8-8---------------------------------------|
Tap to rate this tab
# A B C D E F G H I J K L M N O P Q R S T U V W X Y Z