Song name
# A B C D E F G H I J K L M N O P Q R S T U V W X Y Z

Ladyhawke - Magic tab

This is a great song with lots of layers. The guitar parts are in the intro which is 
the chorus tune as well. :)


Intro/chorus

Guitar 1:

e|--------------------|--------------------|
b|-5-5----------------|--8--8--------------|
g|-7-7----------------|-10-10--------------|
d|-7-7----------------|-10-10--------------|
a|--------------------|--------------------|
e|--------------------|--------------------|

|-5-5----------------|--8--8----------------|
|-7-7----------------|-10-10----------------|
|-7-7----------------|-10-10----------------|
|--------------------|----------------------|
|--------------------|----------------------|
|--------------------|----------------------| x2
Guitar 2:

e|------------------------|------------------------|
b|------------------------|------------------------|
g|------------------------|------------------------|
d|-10-10-10--10-10-10-10--|-10-10-10--10-10-10-10--|
a|-10-10--8--10-10-10--8--|-10-10--8--10-10-10--8--|
e|------------------------|------------------------|

|-------------------------------|
|-------------------------------|
|-------------------------------|
|-10-10-10-10-x-10-10-10-10-10--|
|-10-10-10-10-x-10-10-10-10-10--|
|--8--8--8--8-x--8--8--8--8--8--|

|-------------------------------|
|-------------------------------|
|-------------------------------|
|-10-10-10-10-x-10-10-10-10-10--|
|-10-10-10-10-x-10-10-10-10-10--|
|--8--8--8--8-x--8--8--8--8--8--|
Tap to rate this tab
 
# A B C D E F G H I J K L M N O P Q R S T U V W X Y Z