Song name
# A B C D E F G H I J K L M N O P Q R S T U V W X Y Z

Ladyhawke - Magic tab

Magic by Ladyhawke
www.ladyhawkemusic.com

Here I've transcribed parts for 2 guitars and the bass.
As always, listen to the song to get correct timing and what not.

Guitar 1
Chorus
    Dm    F      Am    C
e|---------------------------|
G|--6-----10-----------------|
B|--7-----10-----5-----9-----|
D|--7-----10-----7-----10----|
A|--5-----8------7-----10----|
E|---------------5-----8-----|


Guitar 2
Chorus
"I've left my heart to you..."
    Dm                           F
e|----------------------------|
G|--10--10--8--10--10--10--8--|
B|--9---9---9--9---9---9---9--|  x2
D|----------------------------|
A|----------------------------|
E|----------------------------|
"But its not fair..."
    Am              C
e|-------------------------------|
G|--8--8----8--8----8--8---8--8--|
B|--9--9----9--9----9--9---9--9--|
D|-------------------------------|
A|-------------------------------|
E|-------------------------------|

Solo (played on keyboard on the track, but transcribed to guitar)
Played over chorus
e|-----------------------------------------------------------|
G|-------------10-8-------------------------10-8----------8--|
B|----7----10-------10-9--7--------7----10-------10-9--10----|
D|--7----7------------------10---7----7----------------------|
A|-----------------------------------------------------------|
E|-----------------------------------------------------------|


Bass
Intro/Break
    Dm
B|-----------------------------------|
D|-----------------------------------|
A|--5-5-5-5-5-5-5-5-5-5-5-5-5-5-5-5--|
E|-----------------------------------|

Chorus
    Dm     F      Am     C
B|------------------------------|
D|------------------------------|
A|--5-x16--8-x16----------------|
E|----------------5-x16--8-x16--|

Verse
    Am     C     G
B|---------------------|
D|---------------------|
A|---------------------|
E|--5-x16--8-x8--3-x8--|




Structure:
Intro
Chorus x2
Verse x4
Chorus x4
Verse x4
Chorus x4
Break
Solo
Chorus to end (bass only on final 2)
Tap to rate this tab
 
# A B C D E F G H I J K L M N O P Q R S T U V W X Y Z