Song name
# A B C D E F G H I J K L M N O P Q R S T U V W X Y Z

Ladyhawke - Blue Eyes tab

A fairly simple song with two repetitive riffs and one solo part

Standard tuning and a distorted tone

At 0:28
Pre-Chorus
E|---------------------|
B|---------------------|
G|---------------------|
D|--7---------4--------|      (Let both chords ring out)
A|--5---------2--------|
E|---------------------|

Chorus

E|---------------------|
B|---------------------|
G|---------------------|
D|--7--9-9-9-----------|
A|--5--7-7-7-----------|
E|---------------------|

Play through three times then end with

E|--------|
B|--------|
G|--------|
D|--7--9--| (Let ring)
A|--5--7--|
E|--------|

Then repeat one more time.

Solo!

E|-----------------------|
B|-----------------------|
G|--------9--7(b)--------|   (Solo Part I)
D|--9--9--------4--5--7--|
A|-----------------------|
E|-----------------------|

E|--------------------------------------|
B|--------------------------------------|
G|--------9---7----9--7(b)--9--7(b)-----|
D|--9--9--------------------------------| (Solo Part II)
A|--------------------------------------|
E|--------------------------------------|

So you play part I twice then part II once then part I again.

Play the pre-chorus straight after then the chorus

Finito! :)
Tap to rate this tab
 
# A B C D E F G H I J K L M N O P Q R S T U V W X Y Z