Song name
# A B C D E F G H I J K L M N O P Q R S T U V W X Y Z

Ladytron - Seventeen tab

-----------------------------------------------------------------------------
			     Seventeen Ė Ben Kenney
-----------------------------------------------------------------------------
Tabbed by: Niscimble
Email: peteypablo2131@yahoo.com

Iím not going to try to tab the soloÖ if you are able, more power to you!  Anyways, itís 
repetitive.  The verse riff is pretty much the same throughout, except with some minor variations.

Tuning: Standard

Chorus

e|----3----------------5------------|
B|---1-------3--------3---------5---|
G|----------0------------------2----|  x4
D|-2--------------5-4---------------|
A|------3-2----------------5-4------|
E|----------------------------------|

Verse

e|--------------------------------------------------------------------------|
B|--------------------------------------------------------------------------|
G|------------------------7---------7---------------------------------7-----|
D|-xxxxxxxx-2-xxx-7-x-7-5-7-7-7-xxx-7-x-5-5-5-9-9-9-xxx-2-xxx-7-x-7-5-7-5-5-|
A|-xxxxxxxx-2-xxx-7-x-7-5-7-7-7-xxx-5-x-5-5-5-9-9-9-xxx-2-xxx-7-x-7-5-5-5-5-|
E|-xxxxxxxx-0-xxx-5-x-5-5-5-5-5-xxx-5-x-7-7-3-7-7-7-xxx-0-xxx-5-x-5-5-5-7-7-|

e|---------------------------|
B|---------------------------|
G|-----7---------------------|
D|-xxx-7-x-7-------------2---|
A|-xxx-5-x-7-7-5---------2---|
E|-xxx-5-x-5-----7-5-3---0---|

Bridge

e|----5----5------3----3----------------------------------------------------|
B|---3----3------1----1------6----------------------------------------------|
G|--------------------------3----5------------------------------------------|
D|-4----5-----2-----3-----------5-----------------4-------4-----------4-6---|
A|------------------------5----3---------3-5-6-5-6--6-5-6--6-5-6-5-3-5--6---|
E|----------------------------------4-6---------------------------------4---|

| /  slide up
| \  slide down
| h  hammer-on
| p  pull-off
| ~  vibrato
| +  harmonic
| x  Mute note
=============================================================================
Tap to rate this tab
# A B C D E F G H I J K L M N O P Q R S T U V W X Y Z