Guitaretab - guitar tabs
Song name
# A B C D E F G H I J K L M N O P Q R S T U V W X Y Z

Ladytron - International Dateline tab

Artist: Ladytron
Title: International Dateline
Album: Witching Hour (2005)
Label: Rykodisc

Fully tabbed by Goad.
For questions or whatever, just leave a comment.

NOTE:
There aren't really many guitar parts in this song,
but I still like playing it with my guitar.
I like to get creative and use different effects, so you can try
that too. (e.g. for the SYNTH, you can use the delay effect, etc.)

Standard Tuning

==========
INTRO: (repeat 2x)
   BASSLINE (repeated ALL throughout the song, except where noted)
G|-----------------|-----------------|-----------------|-----------------|
D|-----------------|-----------------|-----------------|-----------------|
A|-3-3-3--3-3-33---|-----------------|-----------------|--------6-6-66-6-|
E|---------------6-|-3-3-3--3-3-33-6-|-4-4-4--4-4-44-4-|-4-4-4-----------|
 |
 | SYNTH (arranged for guitar)
e|-----------------|-----------------|-----------------|-----------------|
B|-----------------|-----------------|-----------------|-----------------|
G|-----------------|-----------------|-----------------|-----------------|
D|-----------------|-----------------|-----------------|-----------------|
A|-3---------------|-----------------|-----------------|--------6--------|
E|---------------6-|-3-------------6-|-4---------------|-4---------------|


VERSE 1:
(same as INTRO; then repeat under CHORUS)


CHORUS: (repeat 2x) (0:45)
   GUITAR (tremolo all notes) -- use the ECHO EFFECT
e|-----------------|-----------------|-----------------|-----------------|
B|-----------------|-----------------|-----------------|-------9----8----|
G|-7-------8-------|-7-------8-------|-7-------8-------|-8---------------|
D|-----------------|-----------------|-----------------|-----------------|
A|-----------------|-----------------|-----------------|-----------------|
E|-----------------|-----------------|-----------------|-----------------|

[ Tab from: http://www.guitaretab.com/l/ladytron/66697.html ]
VERSE 2: (repeat 2x) (1:08)
   SYNTH (arranged for guitar; you can use the wah-pedal for the last note)
e|-----------------|-----------------|-----------------|-----------------|
B|-----------------|-----------------|-----------------|-----------------|
G|-----------------|-----------------|-----------------|-----------------|
D|-----------------|-----------------|-----------------|-----------------|
A|-3---------------|-5---------------|-----------------|-------------6---|
E|---------------6-|---------------6-|-4---------------|-(4)-------------|


Repeat CHORUS (with VERSE 2, and the BASSLINE of course) (1:31)


VERSE 3 / BRIDGE: (repeat 2x) (1:54)
   SYNTH (arranged for guitar; this has a spacey feel to it)
e|-----------------|-----------------|-----------------|-----------------|
B|-----------------|-----------------|-----------------|-----------------|
G|-5---------------|-----------------|-----------------|-8---------------|
D|-----------------|-5---------------|-6---------------|-----------------|
A|-----------------|-----------------|-----------------|-----------------|
E|-----------------|-----------------|-----------------|-----------------|
   ** BASSLINE comes in on 2nd repetition (2:05)


Repeat CHORUS: 1st repetition w/BRIDGE + VERSE 1 SYNTH parts (2:17)
               repeat 7 more times w/OUTRO VERSE SYNTH part  (2:28 to 3:47)

OUTRO VERSE:
   SYNTH (arranged for guitar)
e|-----------------|-----------------|-----------------|-----------------|
B|-----------------|-----------------|-----------------|-----------------|
G|-----------------|-----------------|-----------------|-----------------|
D|-----------------|-----------------|-----------------|-----------------|
A|-3---------------|-5---------------|-----------------|-----------------|
E|---------------6-|---------------6-|-4---------------|-4-----------3---|


Repeat CHORUS (3:48 to 4:11)


THE END!
Related for International Dateline tab
×
Best way to learn
"International Dateline"