Song name
# A B C D E F G H I J K L M N O P Q R S T U V W X Y Z

Lafee - Sterben Fur Dich tab

	 g#			  c#	g#		    c#   g#		  c#
E||--------------6-7-|6-----------------|4-------------6-7-|
H||----4---4h5-4-----|----4---4h5-4-5---|----4---4h5-4-----|
G||--4---4---------6-|--4---4-------6---|--4---4---------6-|
D||6-----------------|6-----------------|6-----------------|
A||------------------|------------------|------------------|
E||------------------|------------------|------------------|

g#		  c# g#	  g#			 c#	  g#			 c#
6-----------------|4-------4h6-4-6-12-|--------4h6-7-6---|
----4h5-4-5-4-----|----4---4h5-4---12-|----4---4h5-4-----|
--4-------6-4-----|--4---4------------|--4---4-------6---|
6-----------------|6------------------|6-----------------|
------------------|-------------------|------------------|
------------------|-------------------|------------------|

g#			  c#	   g#	   	c#
4-------4h6-4-6-12-|----4h6-4-6-7-(6)-(7)-|
----4---4h5-4---12-|----4h5-4-------------|
--4---4------------|--4-------6-4-(6)-(4)-|
6------------------|6---------------------|
-------------------|----------------------|
-------------------|----------------------|

Verse

c#				H(on D#)		  c#		H(on D#)
----------------|----------------|----------------|----------------|
--------5-------|--------5-------|--------5-------|--------5-------|
----6-----6---6-|----4-----4-----|----6-----6---6-|----4-----4-----|
--6---6-----6---|--4---4-----4---|--6---6-----6---|--4---4-----4---|
4---------------|6---------------|4---------------|6---------------|
----------------|----------------|----------------|----------------|

c#				H(on D#)		  A		G#
----------------|----------------|----------------|----------------|
--------5-------|--------5-------|----------------|----------------|
----6-----6---6-|----4-----4-----|--------6-------|--------5-------|
--6---6-----6---|--4---4-----4---|----7-----7---7-|----6-----------|
4---------------|6---------------|--7---7-----7---|--6---6---------|
----------------|----------------|5---------------|4---------------|

Ich lebe für dich. 
Ich ertrinke in dir. 
Doch deine Augen sehn weg wenn ich mich in dir verlier. 
Unerreichbar nah spielst du mit mir. 
Spürst du das nicht? 
Rette mich... 

Chorus

c#				A			  F#	  G#
----------------|----------------|----------------|----------------|
----5-------5---|----------------|----------------|----------------|
----6-------6---|----6-------6---|----3-------3---|----5-------5---|
--6---6---6---6-|----7-------7---|----4-------4---|----------------|
4-------4-------|--7---7---7---7-|--4---4---4---4-|--6---6---6---6-|
----------------|5-------5-------|2-------2-------|4-------4-------|

c#				A			  G#
----------------|----------------|----------------|----------------|
----5-------5---|----------------|----------------|----------------|
----6-------6---|----6-------6---|----5-------5---|----------------|
--6---6---6---6-|----7-------7---|----------------|----------------|
4-------4-------|--7---7---7---7-|--6---6---6---6-|----------------|
----------------|5-------5-------|4-------4-------|4---------------|

Ich würde sterben für dich. 
Sterben für dich. 
Warum siehst du das nicht? 
Ich würde sterben für dich. 
Sterben für dich. 
Warum fühlst du nicht wie ich? 


Verse

c#				H(on D#)		  c#		H(on D#)
----------------|----------------|----------------|----------------|
--------5-------|--------5-------|--------5-------|--------5-------|
----6-----6---6-|----4-----4-----|----6-----6---6-|----4-----4-----|
--6---6-----6---|--4---4-----4---|--6---6-----6---|--4---4-----4---|
4---------------|6---------------|4---------------|6---------------|
----------------|----------------|----------------|----------------|

c#				H(on D#)		  A		G#
----------------|----------------|----------------|----------------|
--------5-------|--------5-------|----------------|----------------|
----6-----6---6-|----4-----4-----|--------6-------|--------5-------|
--6---6-----6---|--4---4-----4---|----7-----7---7-|----6-----------|
4---------------|6---------------|--7---7-----7---|--6---6---------|
----------------|----------------|5---------------|4---------------|

Du tust mit so weh. 
Dieser Schmerz ist dein Fluch. 
Doch um Hilfe zu flehn da fehlt mir der Mut. 
Berühr meine Hand und alles wird gut. 
Doch du tust das nicht. 
Rette mich... 


Chorus

c#				A			  F#	  G#
----------------|----------------|----------------|----------------|
----5-------5---|----------------|----------------|----------------|
----6-------6---|----6-------6---|----3-------3---|----5-------5---|
--6---6---6---6-|----7-------7---|----4-------4---|----------------|
4-------4-------|--7---7---7---7-|--4---4---4---4-|--6---6---6---6-|
----------------|5-------5-------|2-------2-------|4-------4-------|

c#				A			  G#
----------------|----------------|----------------|----------------|
----5-------5---|----------------|----------------|----------------|
----6-------6---|----6-------6---|----5-------5---|----------------|
--6---6---6---6-|----7-------7---|----------------|----------------|
4-------4-------|--7---7---7---7-|--6---6---6---6-|----------------|
----------------|5-------5-------|4-------4-------|4---------------|

Ich würde sterben für dich. 
Sterben für dich. 
Warum siehst du das nicht? 
Ich würde sterben für dich. 
Sterben für dich. 
Warum fühlst du nicht wie ich? 


Chorus

c#				A			  F#	  G#
----------------|----------------|----------------|----------------|
----5-------5---|----------------|----------------|----------------|
----6-------6---|----6-------6---|----3-------3---|----5-------5---|
--6---6---6---6-|----7-------7---|----4-------4---|----------------|
4-------4-------|--7---7---7---7-|--4---4---4---4-|--6---6---6---6-|
----------------|5-------5-------|2-------2-------|4-------4-------|

c#				A			  G#
----------------|----------------|----------------|----------------|
----5-------5---|----------------|----------------|----------------|
----6-------6---|----6-------6---|----5-------5---|----------------|
--6---6---6---6-|----7-------7---|----------------|----------------|
4-------4-------|--7---7---7---7-|--6---6---6---6-|----------------|
----------------|5-------5-------|4-------4-------|4---------------|

Ich würde sterben für dich. 
Warum, warum, warum fühlst du das nicht? 
Warum liebst du mich nicht? 
Spürst du das nicht? 
Ich würde sterben nur für dich. 
Tap to rate this tab
 
# A B C D E F G H I J K L M N O P Q R S T U V W X Y Z