Song name
# A B C D E F G H I J K L M N O P Q R S T U V W X Y Z

Laguna Pai - Libertad tab

(/) Slide Up  (\) Slide Down  (h) Hammer On  (p) Pull Off  (b) Bend (r) Release (v) Vibrato

Riff

E|------------------------------------------------------------------------------------------|--
B|----------3--1--0-------------3--1--0-------------3--1--0---------------------------------|--
G|--2\4--------------2--2\4--------------2--2\4--------------2--0------0--0--0--4--2--0--2--|--
D|-------5-------------------5-------------------5------------------------------------------|--
A|------------------------------------------------------------------------------------------|--
E|------------------------------------------------------------------------------------------|--


Acordes

       G     G     C     D
E|--x--3--x--3--x--3--x--5--|--
B|--x--3--x--3--x--5--x--7--|--
G|--x--4--x--4--x--5--x--7--|--
D|--x--5--x--5--x--5--x--7--|--
A|--x--5--x--5--x--3--x--5--|--
E|--x--3--x--3--x--3--x--5--|--

Laguna Pai: http://www.lagunapai.pe/
Tap to rate this tab
 
# A B C D E F G H I J K L M N O P Q R S T U V W X Y Z