Song name
# A B C D E F G H I J K L M N O P Q R S T U V W X Y Z

Laguna Pai - Anything tab

(/) Slide Up  (\) Slide Down  (h) Hammer On  (p) Pull Off  (b) Bend (r) Release (v) Vibrato


E|--7--7--7--7------7--7----7----5--5--|--
B|--7--7--7--7------7--7----8----5--5--|--
G|--7--7--7--7------7--7----9----6--6--|--
D|-------------------------------------|--
A|-------------------------------------|--
E|-------------------------------------|--



E|-------------------------------------------------------------------------------------|--
B|-------------------------------------------------------------------------------------|--
G|----------------------7-------------------9------------------------------------------|--
D|--9----9--9--9--9--9-----9----9--9--9--9-----9----9--9--9--9--7--7----7--7--7--8--9--|--
A|-------------------------------------------------------------------------------------|--
E|-------------------------------------------------------------------------------------|--
Tap to rate this tab
# A B C D E F G H I J K L M N O P Q R S T U V W X Y Z