Song name
# A B C D E F G H I J K L M N O P Q R S T U V W X Y Z

Laguna Pai - Politikanto tab

(/) Slide Up  (\) Slide Down  (h) Hammer On  (p) Pull Off  (b) Bend (r) Release (v) Vibrato


E|-------------------------------------|-----------------------------------|--
B|-------------------------------------|-----------------------------------|--
G|-------------------------------------|---------------------------3h4-----|--
D|-------------------5-------4h5--4h5--|-------------------5------------5--|--
A|----------------7-----5--------------|----------------7-----5------------|--
E|--5----5--5--8-----------------------|--5----5--5--8---------------------|--


       Am                 D
E|--x--5--5--x--5--5--x--5--5--x--5--5--
B|--x--5--5--x--5--5--x--7--7--x--7--7--
G|--x--5--5--x--5--5--x--7--7--x--7--7--
D|--x--7--7--x--7--7--x--7--7--x--7--7--
A|--x--7--7--x--7--7--x--5--5--x--5--5--
E|--x--5--5--x--5--5--x--5--5--x--5--5--
Tap to rate this tab
 
# A B C D E F G H I J K L M N O P Q R S T U V W X Y Z