Song name
# A B C D E F G H I J K L M N O P Q R S T U V W X Y Z

Lagwagon - Violins tab

Violin Tab by Lagwagon
Tabbed by Seanith
*= play 8 times

Some of the other tabs didn't seem right and were a bit complicated. I simplified it and 
sounds right for the most part. The solo I did with individual notes instead of 
Its easier to play fast imo.

Intro (open)
e|---------------|
B|---------------|
G|--*-----*---*--|
D|--5--*--9—-10--| X1
A|--3--5--7---8--|
E|-----3---------|
______________________________________
Verse 1 (“I am just another fool.....”)
e|------------------------|
B|------------------------|
G|----*---------*-----*---|
D|--5-x----*--9-x--10-x---| X3
A|--3-x--5-x--7-x--8--x---|
E|-------3-x--------------|

Verse 2 (“So I assume the role, open my mouth…”)
e|---------------|
B|---------------|
G|--*--------*---|
D|--5--*--*--10--| X1
A|--3--5--7--8---|
E|-----3--5------|

Verse 3 (“So are you.....”)
e|----------------|
B|----------------|
G|--*-----*----*--|
D|--5--*--10--12--| X1
A|--3--8--8---10--|
E|-----6----------|
______________________________________________
Verse 1 (“I awake with your replacement.....”)
e|------------------------|
B|------------------------|
G|----*---------*-----*---|
D|--5-x----*--9-x--10-x---| X3
A|--3-x--5-x--7-x--8--x---|
E|-------3-x--------------|

Verse 2 (“But I assume false grace, open my arms…”)
e|---------------|
B|---------------|
G|--*--------*---|
D|--5--*--*--10--| X1
A|--3--5--7--8---|
E|-----3--5------|

Verse 3 (“How are ya.....”)
e|----------------|
B|----------------|
G|--*-----*----*--|
D|--5--*--10--12--| X2
A|--3--8--8---10--|
E|-----6----------|
___________________

Bridge (“Your loves slipping away…”
e|-----------------------|
B|-----------------------|
G|-----------------------|
D|-----------------------|X1
A|--8-8-x-x-x-8-8-x-x-x--|
E|--6-6-x-x-x-6-6-x-x-x--|

Solo
e|-------------------------------------------------------------------------^^-----|
B|-----5-------5-6-5-6-8-6-5-6-5-----------5-------5-6-5-6-8-6-5-6-8-10-12-13-----|
G|-5-7---7-5-7-------------------7-5-4-5-7---7-5-7--------------------------------|
D|--------------------------------------------------------------------------------|
A|--------------------------------------------------------------------------------|
E|--------------------------------------------------------------------------------|

______________________________________
Verse 1 (“I bring out the worst in you…”)
e|------------------------|
B|------------------------|
G|----*---------*-----*---|
D|--5-x----*--9-x--10-x---| X2
A|--3-x--5-x--7-x--8--x---|
E|-------3-x--------------|

Verse 4 (“I’m trying, to let you go...”)
e|------------------------|
B|------------------------|
G|----*---------------*---|
D|--5-x----*----*--10-x---| X1
A|--3-x--5-x--2-x--8--x---|
E|-------3-x--0-x---------|

Verse 2 (“So I assume the role, open my claws.....”)
e|---------------|
B|---------------|
G|--*--------*---|
D|--5--*--*--10--| X1
A|--3--5--7--8---|
E|-----3--5------|

Verse 3 (“How are ya, how have you been…”)
e|----------------|
B|----------------|
G|--*-----*----*--|
D|--5--*--10--12--| X2
A|--3--8--8---10--|
E|-----6----------|
____________________________________
Bridge (“Your loves slipping away…”
e|-----------------------|
B|-----------------------|
G|-----------------------|
D|-----------------------|X2
A|--8-8-x-x-x-8-8-x-x-x--|
E|--6-6-x-x-x-6-6-x-x-x--|

Outro (“Violins! Into this ashtray life, Violins!...”)
* = ~6times
    First 3 times
e|----------------|---------------|
B|----------------|---------------|
G|--*---*---*-----|--*---*--------|
D|--10--12--5--*--|--10--12--5----|
A|--8---10--3--7--|--8---10--3----|
E|-------------5--|---------------|
Tap to rate this tab
# A B C D E F G H I J K L M N O P Q R S T U V W X Y Z