Song name
# A B C D E F G H I J K L M N O P Q R S T U V W X Y Z

Lagwagon - Violins Acoustic tab

-------------------------------------------------------------------------------
			     Violins(acoustic) - Lagwagon
-------------------------------------------------------------------------------
Tabbed by:Juan "Mas Puto" Galvan
Email:myspace.com/one_crazy_beaner

Tuning:Standard


       Okay this might not be the way they play it but it sounds good to me.
       Its only got a few parts to it and the solo but not difficult at all.
       I'm just surprised no one tab it out already. Hope you like it if not
       ... so what

 (Verse)
e|---------------------------------------------------------------------|
B|---------------------------------------------------------------------|
G|------9---9---9--9----8---8---8---8----6---6---6---6---6---6---6---6-|
D|------9---9---9--9----9---9---9---9----6---6---6---6---7---7---7---7-|
A|----*7--*7--*7--*7----9---9---9---9--*4--*4--*4--*4----7---7---7---7-|
E|--------------------*7--*7--*7--*7-------------------*5--*5--*5--*5--|
  * palm mute
 (Prechorus)
e|--------------------------------------------|
B|--------------------------------------------|
G|---99999999--99999999--66666666-------------|
D|---99999999--99999999--66666666--7777--9999-|
A|---77777777--88888888--44444444--7777--9999-|
E|---------------------------------5555--7777-|
 (Chorous)
e|---------------------------------5555--7777-|
B|---99999999--77777777--55555555--5555--7777-|
G|---99999999--77777777--66666666--6666--8888-|
D|---99999999--77777777--66666666--7777--9999-|
A|---77777777--55555555--44444444--7777--9999-|
E|---------------------------------5555--7777-|

e|---------------------------------------77--55-|
B|---99999999--77777777--55555555--5555--77--55-|
G|---99999999--77777777--66666666--5555--88--66-|
D|---99999999--77777777--66666666--5555--99--77-|
A|---77777777--55555555--44444444--3333--99--77-|
E|---------------------------------------77--55-|
 (Solo) not sure how many times each string is strum but if ya listen to
        the c.d you'll get it

e|------------------------------------------------------------------------|
B|------------------------------------------------------------------------|
G|-9--11--13--11--11--13--14--13--14--16--14--13--11--14--13--11-9-11-9-8-|
D|------------------------------------------------------------------------|
A|------------------------------------------------------------------------|
E|------------------------------------------------------------------------|

e|----------------------------------------------------17-14-16-17---------|
B|------------------------------------------------------------------------|
G|-9--11--13--11--11--13--14--13--14--16--14--13--14----------------------|
D|------------------------------------------------------------------------|
A|------------------------------------------------------------------------|
E|------------------------------------------------------------------------|

 Verse
 Prechorus
 Chorus
 Verse
 Prechorus
 Chorus
 Solo
 Verse
 Prechorus
 Chorus

 Aight foo's thats it plain and simple to play great song to sing to chicks when there 
well me be off peace!
Tap to rate this tab
# A B C D E F G H I J K L M N O P Q R S T U V W X Y Z