Song name
# A B C D E F G H I J K L M N O P Q R S T U V W X Y Z

Lagwagon - Hurry Up And Wait tab

Guitar 1 (**Only the chords played in order are shown**)

						   ("I'm already late man..")
|-------------------------------------------------|-------------------------|
|-------------------------------------------------|-------------------------|
|-------------------------------------------------|-7-11-4-5-7-4-6----------|
|-7-6-4-6--7-6-4-6--7-6-4-5-7------------2-4-5-7--|-------------------------|
|-5-4-2-4--5-4-2-4--5-4-2-5-7------------2-4-5-7--|-5--9-2-7-5-2-4----------|
|-------------------------3-5-pick-slide-0-2-3-5--|-------------------------|

|---------------------------------------|
|---------------------------------------|
|-------------------------------7-6-7---|
|-7-6-4-6--7-6-4-6--7-6-4-5-7-----------|
|-5-4-2-4--5-4-2-4--5-4-2-5-7---5-4-5---|
|-------------------------3-5-----------|

Guitar 2 (**Only the chords played in order are shown**)
							(I'm already late..")
|--------------------------------------------------------|---------------|
|--------------------------------------------------------|---------------|
|-------------------------------------------5b-5bp4------|---------------|
|-7-6-4-6--7-6-4-6--7-6-4-5-7------------2-----------5-7-|-9-2-4-7-------|
|-5-4-2-4--5-4-2-4--5-4-2-5-7------------2-----------5-7-|-9-2-4-7-------|
|-------------------------3-5-pick-slide-0-----------3-5-|-7-0-2-5-------|


|--------------------------------------|
|--------------------------------------|
|-------------------------------7-6-7--|
|-7-6-4-6--7-6-4-6--7-6-4-5-7----------|
|-5-4-2-4--5-4-2-4--5-4-2-5-7---5-4-5--|
|-------------------------3-5----------|
Tap to rate this tab
# A B C D E F G H I J K L M N O P Q R S T U V W X Y Z