Song name
# A B C D E F G H I J K L M N O P Q R S T U V W X Y Z

Lagwagon - Brown-eyed Girl tab

well i like lagwagon so ill be postin lots of them.  heres there cover of that great song by van morrison BROWN EYED GIRL  word word and look for lots more tabs from me



intro:
e-|--------------8-10-12-10-8-----------------------|
B-|-8-10-12-10-8--------------8-10-12-10-8-7-7-8-10-|
G-|-------------------------------------------------|
D-|-------------------------------------------------|
A-|-------------------------------------------------|
E-|-------------------------------------------------|

verse:
e-|-----------------------------------------------------------------|
B-|-----------------------------------------------------------------|
G-|-----------------------------------------------------------------|
D-|-----------------5-5-5-5-5-5-5-5-----------------7-7-7-7-7-7-7-7-|
A-|-5-5-5-5-5-5-5-5-3-3-3-3-3-3-3-3-5-5-5-5-5-5-5-5-5-5-5-5-5-5-5-5-|
E-|-3-3-3-3-3-3-3-3-----------------3-3-3-3-3-3-3-3-----------------|

chorus:
e-|-------------------------------------------------------------------------
B-|-------------------------------------------------------------------------
G-|---------------------------------12-14-12-11-9-7-9-----------------------
D-|-5-5-5-5-5-5-5-5-7-7-7-7-7-7-7-7-xx-xx-xx-xx-x-x-x-5-5-5-5-5-5-5-5-7-7-7-
A-|-3-3-3-3-3-3-3-3-5-5-5-5-5-5-5-5-10-12-10--9-7-5-7-3-3-3-3-3-3-3-3-5-5-5-
E-|-------------------------------------------------------------------------

e-|-------------------------------------|
B-|-------------------------------------|
G-|-------------------------------------|
D-|-7-7-7-7-7-----------------7-7-7-7-7-|
A-|-5-5-5-5-5-5-5-5-5-5-5-5-5-5-5-5-5-5-|
E-|-----------3-3-3-3-3-3-3-3-----------|
Tap to rate this tab
# A B C D E F G H I J K L M N O P Q R S T U V W X Y Z