Song name
# A B C D E F G H I J K L M N O P Q R S T U V W X Y Z

Lagwagon - Alien 8 tab

Good song look for more of mine have fun bye

Intro: (clean)

e|-0-0-0-0-0-0-0-0-0------------------2-2-2-2-2-2-2-2-2-0-0-0-0------------|
B|-2-2-2-2-2-2-2-2-2--3-3-3-2---------3-3-3-3-3-3-3-3-3-2-2-2-0------------|
G|-2-2-2-2-2-2-2-2-2--2-2-2-2-4-4-4-4-2-2-2-2-2-2-2-2-2-2-2-2-2-2-2-2-2-2--|
D|-2-2-2-2-2-2-2-2-2--4-4-4-4-4-4-4-4-0-0-0-0-0-0-0-0-0-2-2-2-2-2-2-2-2-2--|
A|-0-0-0-0-0-0-0-0-0--2-2-2-2-2-2-2-2-------------------0-0-0-0-0-0-0-0-0--|
E|-------------------------------------------------------------------------|

e|-0-0-0-0-0-0-0-0-0------------------2-2-2-2-2-2-2-2-2-0------------------|
B|-2-2-2-2-2-2-2-2-2--3-3-3-2---------3-3-3-3-3-3-3-3-3-2-0-0-0-0-0-0------|
G|-2-2-2-2-2-2-2-2-2--2-2-2-2-4-4-4-4-2-2-2-2-2-2-2-2-2-2-1-1-1-2-1-1-2----|
D|-2-2-2-2-2-2-2-2-2--4-4-4-4-4-4-4-4-0-0-0-0-0-0-0-0-0-2-2-2-2-2-2-2-2----|
A|-0-0-0-0-0-0-0-0-0--2-2-2-2-2-2-2-2---------------------2-2-2-2-2-2-0----|
E|--------------------------------------------------------0-0-0-0-0-0-0----|

Verse w/distortion

e|-------------------------------------------------------------------------|
B|-------------------------------------------------------------------------|
G|---------------------4-4-4-4-4-4-4-4-4-4-7-7-7-7-7-7-7-7-7-------------2-|
D|-7-7-7-7-7-7-7-7-7-7-4-4-4-4-4-4-4-4-4-4-7-7-7-7-7-7-7-7-7-2-2-2-2-2-2-2-|
A|-7-7-7-7-7-7-7-7-7-7-2-2-2-2-2-2-2-2-2-2-5-5-5-5-5-5-5-5-5-2-2-2-2-2-2-0-|
E|-5-5-5-5-5-5-5-5-5-5---------------------------------------0-0-0-0-0-0---|

e|-----------------------------|
B|-----------------------------|
G|-7-----4-----2-2-2-2-2-2-2-2-|
D|-7--4--4--2--2-2-2-2-2-2-2-2-|
A|-5--4--2--2--0-0-0-0-0-0-0-0-|
E|----2-----0------------------|


Guitar Solow/auto wah
e|--------------------------------------------------------------------------|
B|--------------------------------------------------------------------------|
G|--2-4-6-6-6-4-2~~-7-6-4~-7h9p7h9p7h9-6h7p6h7p6h7-4~6h7p6h7p6h7-4h6p4h6p4-2|
D|2-------------------------------------------------------------------------|
A|--------------------------------------------------------------------------|
E|--------------------------------------------------------------------------|

e|---------10-10--9--9-7-7-7-9-9-10-10-----------------9--9-----------------|
B|10-10-10-10-10-10-10-7-7-7-7-7--7--7-10-10-10-12-12-10-10-9-9-9h10p9-7-9-10
G|-9--9--9-----------------------------11-11-11-11-11-11-11-----------------|
D|--------------------------------------------------------------------------|
A|--------------------------------------------------------------------------|
E|--------------------------------------------------------------------------|

e||---------------------||-----------------------------|
B||---------------------||-----------------------------|
G||*-7-----4-4-4-4-4-4-*||-7-----4-----2-2-2-2-2-2-2-2-|
D||--7--4--4-4-4-4-4-4--||-7--4--4--2--2-2-2-2-2-2-2-2-|
A||*-5--4--2-2-2-2-2-2-*||-5--4--2--2--0-0-0-0-0-0-0-0-|
E||-----2---------------||----2-----0------------------|


Repeat the second line of the Intro, but hold the chords


Verse 2:
e|-------------------------------------------------------------------------|
B|---------------------3-3-3-2-2-2-----------------------------------------|
G|-6-6-6---------------4-4-4-4-4-4-4-4-4-4-7-7-7-7-7-7-7-7-7-------------2-|
D|-7-7-7-9-9-9-7-7-7-7-4-4-4-4-4-4-4-4-4-4-7-7-7-7-7-7-7-7-7-2-2-2-2-2-2-2-|
A|-7-7-7-7-7-7-7-7-7-7-2-2-2-2-2-2-2-2-2-2-5-5-5-5-5-5-5-5-5-2-2-2-2-2-2-0-|
E|-5-5-5-5-5-5-5-5-5-5---------------------------------------0-0-0-0-0-0---|

Outro:

e||---------------------||-----------------------------|
B||---------------------||-----------------------------|
G||*-7-----4-4-4-4-4-4-*||-7-----4-----2-2-2-2-2-2-2-2-|
D||--7--4--4-4-4-4-4-4--||-7--4--4--2--2-2-2-2-2-2-2-2-|
A||*-5--4--2-2-2-2-2-2-*||-5--4--2--2--0-0-0-0-0-0-0-0-|
E||-----2---------------||----2-----0------------------|
Tap to rate this tab
# A B C D E F G H I J K L M N O P Q R S T U V W X Y Z