Song name
# A B C D E F G H I J K L M N O P Q R S T U V W X Y Z

Lagwagon - Live The Light On tab

Complete Solo by elNinio

Guitar 1 (Harmonics(h) are in brackets, unnatutural harmonics i think they
are,
          the type where you hit the string with your thumb after picking it)
|-----------------------------------------------------------------------12-|
|-------------------------------------------------------------------0-8----|
|---------------------------------------------0-2-4-3--6--7---6p5p---------|
|--------------4-5--4h5p4h5p4h5p4h5p4h5--4-2-------------------------------|
|-9/------5-7--------------------------------------------------------------|
|--------------------------------------------------------------------------|

|---------------------------------------|
|---------------------------------------|
|-------------------------9h9h9h--------|
|--8-8-9-11--11-9-8-11-9----------------|
|---------------------------------------|
|---------------------------------------|
Tap to rate this tab
 
# A B C D E F G H I J K L M N O P Q R S T U V W X Y Z