Song name
# A B C D E F G H I J K L M N O P Q R S T U V W X Y Z

Lagwagon - Making Friends tab

intro
e|-------------------------------------------------------------------------|
B|-------------------------------------------------------------------------|
G|-------------------------------------------------------------------------|
D|----------------2-2-2-2-2-------------2-2-2-2-2------------7-7-7-7-7-----|
A|---7-7-7-7-7-7--2-2-2-2-2---4-4-4-4-4-0-0-0-0-0--2-2-2-2-2-5-5-5-5-5-----| 
E|---5-5-5-5-5-5--0-0-0-0-0---2-2-2-2-2------------0-0-0-0-0---------------|

e|-------------------------------------------------------------------------|
B|-------------------------------------------------------------------------|
G|-------------------------------------------------------------------------|
D|-------------------------------------6-6-6-6-6-6--7-7-7-7-7--------------|
A|---7-7-7-7-7--2-2-2-2-2--4-4-4-4-4---4-4-4-4-4-4--5-5-5-5-5---2----------|
E|---5-5-5-5-5--0-0-0-0-0--2-2-2-2-2----------------------------0---------
| 

  verse 
e|-------------------------------------------------------------------------|
B|-------------------------------------------------------------------------|
G|-------------------------------------------------------------------------|
D|-------------7-7-7-7-7-------------------------------7-7-7-7-7-----------|
A|--4-4-4-4-4--5-5-5-5-5-7-7-7-7-7-2-2-2-2-4-4-4-4-4-4-5-5-5-5-5-7-7-7-7-2-|
E|--2-2-2-2-2------------5-5-5-5-5-0-0-0-0-2-2-2-2-2-2-----------5-5-5-5-0-| 
  bridge clean guitar
e|-------------------------------------------------------------------------| 
B|-------------------------------------------------------------------------| 
G|-------------------------------------------------------------------------| 
D|-------------------------------------------------------------------------| 
A|---------11-12-------12-14------11-12-------11-12-------11-12------------|
E|---10-10-------12-12--------9-9-------10-10-------10-10------------------|   

solo
e|-------------------------------------------------------------------------|
B|-------------------------------------------------------------------------|
G|-------------------------------------------------------------------------|
D|-7-4-6-7-6-7-9-9-11-7-9-7-9-9-7-7-6-6-4-4-2------------------------------|
A|-------------------------------------------------------------------------|
E|-------------------------------------------------------------------------|   

intro+verse and now this part(making friends...)
e|-------------------------------------------------------------------------|
B|----2x-------------------------------------------------------------------|
G|---------------------------------1111-14-13------------------------------|
D|---------------------7-7-7-7-7-7-----------------------------------------|
A|-4-4-4-4---7-7-7-7-7-5-5-5-5-5-5--9-9-12-11------------------------------|
E|-2-2-2-2---5-5-5-5-5-----------------------------------------------------| 

riff/   witheffect
e|-------------------------------------------------------------------------|
B|-------------------------------------------------------------------------|
G|-------------------------------------------------------------------------|
D|-7-7-7-7-7--9-9-9-9-9-6-6-6-6-6-7-7-77-7---------------------------------|
A|-5-5-5-5-5--7-7-7-7-7-4-4-4-4-4-5-5-55-5---------------------------------|
E|-------------------------------------------------------------------------|   

end with this     the other guitar play the bridge
e|2454-452-245457-245457245457------------9-9-9----------------------------|
B|----------------------------------------9-9-9----------------------------|
G|----------------------------------------9-9-9--6-------------------------|
D|--------------------------------7-7-7-7-9-9-9--7-------------------------|
A|--------------------------------5-5-5-5-7-7-7--7-------------------------|
E|-----------------------------------------------5-------------------------|

Tap to rate this tab
# A B C D E F G H I J K L M N O P Q R S T U V W X Y Z