Song name
# A B C D E F G H I J K L M N O P Q R S T U V W X Y Z

Lagwagon - May 16 tab

Help us improve GuitareTab! Take a short survey!
-----------------------------------------------------------------------------------
                                MAY 16th - Lagwagon
-----------------------------------------------------------------------------------
~ = let ring
. = palm muted
/ = slide

tabbed by fatty1985@gmx.de

INTRO:
Part 1

Guitar 1
E----------------------------------------|
B----------------------------------------|
G--9-7-6-7~--9-7-6-7~--9-7-6-7~-7-6------|
D-----------------------------------9-7~-|
A--7-5-4-5~--7-5-4-5~--7-5-4-5~-5-4------|
E-----------------------------------7-5~-|

Guitar 2
E-----------------------------------------|
B-----------------------------------------|
G---7-7-7-7~--7-7-7-7~--7-7-7-7~----------|
D---7-7-7-7~--7-7-7-7~--7-7-7-7~-------7~-|
A---5-5-5-5~--5-5-5-5~--7-7-7-7~-------7~-|
E--------------------------------------5~-|

Part 2

Guitar 1 (something like this)
E------------------------------------------------------------------------------|
B------------------------------------------------------------------------------|
G--9-7-6-777-666-777--9-7-6-777-666-777--9-7-6-777-666-777--7-6--------777-666-|
D---------------------------------------------------------------9-777--777-777-|
A--7-5-5-555-444-555--7-5-4-555-444-555--7-5-4-555-444-555--5-4----------------|
E---------------------------------------------------------------7-555----------|


Guitar 2
E-----------------------------------------------------|
B-----------------------------------------------------|
G--77777777777-444444444444---------------------------|
D--77777777777-444444444444-555555555555-777777777777-|
A--55555555555-222222222222-555555555555-777777777777-|
E---------------------------333333333333-555555555555-|


PRE-VERSE:
Only Guitar 1
E----------------------------------------|
B------------------7------7----8-7-------|
G------7------9--------------------9-7---|
D--7-7----7-7----7----7-7----7-----------|
A----------------------------------------|
E----------------------------------------|
  . .    . .    .     . .    .


VERSE
both (* = play 16x)
E-----------------------------------------------------------------------------|
B---*--*--*-------------------------------------------------------------------|
G--7--4--7----------4-7-6---*--*--77-11-1111-----6-66--4444444444-7-6--*------| 2x
D--7--4--7-44444444--------5--7---77----------77-------4444444444-----5--7777-|
A--5--2--5-44444444-2-5-4--5--7---55--9--9-9--77-4-44--2222222222-5-4-5--7777-|
E----------22222222--------3--5---------------55----------------------3--5555-|
after the first time there's a pick-slide


PRE-CHORUS
Guitar 1
E------------------------------------------------|
B------------------------------------------------|
G--7-7-----------------------7-9-11111111--------| 2x
D--7-7----------9-9------------------------------|
A--5-5-777-9-7--9-9-777-9-7--5-7--9-9-9-9--------|
E---------------7-7------------------------------|

Guitar 2
E------------------------------------|
B------------------------------------|
G--7-7-------------------------------| 2x
D--7-7-777777--9-9---------5-5-7777--|
A--5-5-444444--9-9-999999--5-5-7777--|
E--------------7-7-777777--3-3-5555--|


PRE-VERSE 2
Guitar 1
E---------------------------------------------------------------------------|
B-----------------7------7----8-7---------------------7------7--------------|
G------7------9-------------------8-7------7------9----------------9-7-6-7--|
D--7-7----7-7---7----7-7----7---------7-7----7-7----7----7-7----7-----------|
A---------------------------------------------------------------------------|
E---------------------------------------------------------------------------|
    . .    . .   .    . .    .         . .    . .    .    . .    .
 
Guitar 2
E--------------------------------------------------------------------|
B--------------------------------------------------------------------|
G--7-------------4----------------------7-------------4--------------|
D--7-----4-------4-----------5----------7------4------4-----------5--|
A--5-----4-------2-----------5----------5------4------2-----------5--|
E--------2-------------------3-----------------2------------------3--|

play verse & 3x pre-chorus

Last two times of pre-chorus
Guitar 2 (* = strum 7-8x)
E--------------------------------------------------------|
B--------------------------------------------------------|
G--7-7--------------------7-7----------------------------|
D--7-7--*--*---*---*---*--7-7--*--*---*--55555555--------|
A--5-5-4--2--13--10--12---5-5-4--2--13---55555555--------|
E----------------------------------------33333333--------|

BRIDGE
Guitar 1
E----------------------------------------------------------------------------------------|
B----------------------------------------------------------------------------------------|
G--11111111--9999--7777--6666--7777--77777777777777777777777777777777777777777777777777--|
D------------------------------7777------------------------------------------------------|
A---9-9-9-9--7777--5555--4444--5555------------------------------------------------------|
E----------------------------------------------------------------------------------------|
   \     play this 3x       /



Guitar 2 (* = strum 64x)
E-----------|
B-----------|
G---*-------|
D--6--------|
A--6--------|
E--4--------|



SOLO 
Guitar 2:
|----------------------------------------------------------------------------| 
|------------------------------------7---------------------------------------| 
|--------6-7~--9--7-6-7~---6~----------7-------6-----6-7-6---9-7-6-7-9-11/9--| 
|-7~-7-9-----------------------9--7~-----9-7-9---8-9-------9-----------------| 
|----------------------------------------------------------------------------| 
|----------------------------------------------------------------------------| 

Guitar 1 plays Intro - Part 2


End
Guitar 1
D#----------------------------------------------------------------------------|
A#-----------------7------7----8-7---------------------7------7---------------|
F#------7------9-------------------9-7------7------9----------------9-7-6-7---|
C#--7-7----7-7---7----7-7----7---------7-7----7-7----7----7-7----7------------|
G#----------------------------------------------------------------------------|
D#----------------------------------------------------------------------------|
    . .    . .   .    . .    .         . .    . .    .    . .    .
Guitar 2
D#---------------------------------------------------------------|
A#---------------------------------------------------------------|
F#--7-------------4----------------------5-------------4---------|
C#--7-----4-------4-----------5----------7------4------4---------|
G#--5-----4-------2-----------5----------5------4------2---------|
D#--------2-------------------3-----------------2----------------|
Related for May 16 tab