Song name
# A B C D E F G H I J K L M N O P Q R S T U V W X Y Z

Lagwagon - Leave The Light On tab

INTRO
|---7------4------7------4-----------------|
|---7------4------7------4-----------------|
|---8------5------8------5------9-9---11---|
|---9------6------9------6------9-9---11---| <- You can play the last
|---9------6------9------6------7-7----9---|    2 notes an octave lower
|---7------4------7------4-----------------|    + it sounds cool (  E|---0--2---| ).

VERSE (Play each note twice) (X2)
|---------------------------------------------------------------------------|
|---------------------------------------------------------------------------|
|---------------------------------------------------------------------------|
|---9-9-9-9-9-9-9-9---6-6-6-6-6-6-6-6---9-9-9-9-9-9-9-9---6-6-6-6-6-6-6-6---|
|---9-9-9-9-9-9-9-9---6-6-6-6-6-6-6-6---9-9-9-9-9-9-9-9---6-6-6-6-6-6-6-6---|
|---7-7-7-7-7-7-7-7---4-4-4-4-4-4-4-4---7-7-7-7-7-7-7-7---4-4-4-4-4-4-4-4---|

|--------------------------|
|--------------------------|
|---9-9-9-9--11-11-11-11---|
|---9-9-9-9--11-11-11-11---|
|---7-7-7-7---9--9--9--9---|
|--------------------------|

Gtr. 2 play this 2nd time around, half way through (hope that makes sense!)
|---------------------------------------------------------------------------|
|---------------------------------------------------------------------------|
|--1111111111111111---8-8-8-8-8-8-8-8--1111111111111111---8-8-8-8-8-8-8-8---|
|---x-x-x-x-x-x-x-x---x-x-x-x-x-x-x-x---x-x-x-x-x-x-x-x---x-x-x-x-x-x-x-x---|
|---9-9-9-9-9-9-9-9---6-6-6-6-6-6-6-6---9-9-9-9-9-9-9-9---6-6-6-6-6-6-6-6---|
|---------------------------------------------------------------------------|

|--------------------------|
|--------------------------|
|---9-9-9-9--11-11-11-11---|
|---9-9-9-9--11-11-11-11---|
|---7-7-7-7---9--9--9--9---|
|--------------------------|

CHORUS (x2) - Sometimes they leave the 4th note out
|----------------------0--0--0--0--0--0------------------------|
|----------------------0--0--0--0--0--0------------------------|
|----------------------1--1--1--1--1--1------------------------|
|---9---8---6---4------2--2--2--2--2--2-----4--4--4--4--4--4---|
|---9---8---6---4------2--2--2--2--2--2-----4--4--4--4--4--4---|
|---7---6---4---2------0--0--0--0--0--0-----2--2--2--2--2--2---|

OTHER PART - Not completely sure about 3rd note.
|------------------0--------------------------------|
|------------------0--------------------------------|
|------------------1--------------------------------|
|---6--6--6----2---2------6--6--6--6---4--4--4--4---|
|---6--6--6----2---2------6--6--6--6---4--4--4--4---|
|---4--4--4----0---0------4--4--4--4---2--2--2--2---|

SOLO
|---------------------------------------------|
|---------------------------------------------|
|---Don't know it, other guitar play verse.---|
|---------------------------------------------|
|---------------------------------------------|
|---------------------------------------------|

The order is really easy. Play last half of Other Part as Outro + end on E.

Tap to rate this tab
# A B C D E F G H I J K L M N O P Q R S T U V W X Y Z