Song name
# A B C D E F G H I J K L M N O P Q R S T U V W X Y Z

Lagwagon - One Thing To Live tab

ONE THING TO LIVE by Lagwagon. Album : Double Plaidinum (1997)          
1st time I listened to this song, I though it was going to be just some
acoustic interlude. But as soon as Raun filled in, I knew it was going to rock
hard! A=left guitar   B=right guitar   A&B=both
!FOR MORE ACCURATE LAGWAGON GUITAR TABS, VISIT www.jiihootabs.cjb.net!
# acoustic # !play "lazy"! *=play 5-6X #=play 2-4X X=mute           >
E----*---*--4*--5*---*---*--4*---*---*---*--4*--5*--5*--2*--4*--#-#->
B---9---4---5---5---9---4---5---7---9---4---5---5---5---4---5---9-7->
G---9---4---6---6---9---4---6---6---9---4---6---6---6---2---6---9-6->
D---9---4---6---7---9---4---6---X---9---4---6---7---7---4---6---9-8->
A---7---2---4---7---7---2---4---7---7---2---4---7---7---2---4---7--->
E---7-----------5---7-----------5---7-----------5---5--------------->
    E   B  C#m  A   E   B  C#m  A6  E   B  C#m  A   A   B7 C#m  E F#
>acoustic   A   A
>---5*--#---5*--5*--------------------------------------------------|
>---5---9-#-5---5----*--9-------------------------------------------|
>---6---9-6-6---6---8---9-------------------------------------------|
>---7---9-X-7---7---7---9-------------------------------------------|
>---7---7-6-7---7---9---7-------------------------------------------|
>---5-----4-5---5---7-----------------------------------------------|
:   A   E G#sus4    B7  E
# verse #A *=play 5-6X p=play w/ pauses #=play 2-4X !=play 7-8X w/ palm-muting
E------------------------------------------------------------p------>\
B--------*---*---*-------*---*---*-------*---*---*---*---*---*------> \
G----*--4---6---2----*--4---6---2----*--4---6---7---2---4---6---9-#->  \
D---2---4---6---2---2---4---6---2---2---4---6---7---2---4---6---9-4->   \
A---2---2---4---0---2---2---4---0---2---2---4---5---0---2---4---7-4->    \
E---0-----------0---0-----------0---0---------------0-------------2->     \
# verse #B *=play 5-6X p=play w/ pauses #=play 2-4X !=play 7-8X w/ palm-muting
E------------------------------------------------------------p------>     /
B--------*---*---*-------*---*---*-------*---*-------*---*---*------>    /
G----*--4---6---2----*--4---6---2----*--4---6----*-16--16---6---9-#->   /
D---2---4---6---2---2---4---6---2---2---4---6---7-----------6---9-4->  /
A---2---2---4---0---2---2---4---0---2---2---4---5--14--14---4---7-4-> /
E---0-----------0---0-----------0---0-----------5-----------------2->/
>verseA&B
>------------------------------------*------------------|
>----*-------*---------------*---*--0-------------------|
>---2---#-#-2---#-#--!---!--7---6---2---#-#--*--#-#-9--\|
>---2---2-6-2---2-6-7---2---7---6---2---2-6-7---7-9-9--\|
>---0---2-6-0---2-6-7---2---5---4---0---2-6-7---7-9-7--\|
>---0---0-4-0---0-4-5---0-----------0---0-4-5---5-7-7---|
!FOR MORE ACCURATE LAGWAGON GUITAR TABS, VISIT www.jiihootabs.cjb.net!
# end-verse #A&B *=play 5-7X %=pause #=play 2-4X
E-----%--%-%-%%--%%--%%--%%--%%--%%--%%--%%%--------------------------------|
B-----%--%-%-%%--%%--%%--%%--%%--%%--%%--%%%-------------------------*------|
G-----%--%-%-%%44%%66%%22%%--%%44%%66%%--%%%-*-------*-------*------4-------|
D---77%77%7%2%%44%%66%%22%%22%%44%%66%%44%%%6-------7-------4-------4-------|
A---77%77%7%2%%22%%44%%00%%22%%22%%44%%44%%%6-------7-------4-------2-------|
E---55%55%5%0%%--%%--%%00%%00%%--%%--%%22%%%4-------5-------2---------------|
:
# bridge #A !=play 7-8X w/ p-m *=play 5-6X p=play w/ pauses         >
E--------------------------------------4-------4-------0------------>
B-------------------5-------0-------5-----5-4-----4-2-----2-0------->
G-----------4-------6-------2--------------------------------------->
D---2-------4-------6-------2--------------------------------------->
A---2-------2-------4-------0--------------------------------------->
E---0--------------------------------------------------------------->
# bridge #B !=play 7-8X w/ p-m *=play 5-6X p=play w/ pauses         >
E------4-------4-------4---------------4-------4-------4----------9/>
B---5-----5-4-----4-2-----2-0-------5-----5-4-----4-2-----2-5-----9/>
G------------------------------------------------------------------->
D------------------------------------------------------------------->
A------------------------------------------------------------------->
E------------------------------------------------------------------->
>bridgeA
>------0-------0-------0-----------------------------p--------------|
>---0-----0-1-----1-2-----4----------!-------!-------*--------------|
>---------------------------2-------2-------4-------6-------9-------|
>---------------------------2-------2-------4-------6-------9--4--4-|
>---------------------------0-------0-------2-------4-------7--4--4-|
>---------------------------0----------------------------------2--2-|
>bridgeB
>//12-12------12------12-1112------------------------p--------------|
>//12----1213----1314------12------------------------*--------------|
>-------------------------------------2--2--4--4--4-6-------9-------|
>------------------------------------2-2------4--4-46-------9--4--4-|
>-----------------------------------0---------------4-------7--4--4-|
>--------------------------------------------------------------2--2-|
:
# verse2 #A&B *=play 5-6X p=play w/ pauses #=play 2-4X !=play 7-8X w/ p-m
E------------------------------------*-------*--------------------------|
B----*-------*---------------*---*--0-------0----!---!--5---------------|
G---2---#-#-2---#-#--!---!--7---6---2---#-#-2---2---4---4---------------|
D---2---2-6-2---2-6-7---2---7---6---2---2-6-2---2---4---2---21------2---|
A---0---2-6-0---2-6-7---2---5---4---0---2-6-0---0---2---2-----42----2---|
E---0---0-4-0---0-4-5---0-----------0---0-4-0-------------------54240---|
!FOR MORE ACCURATE LAGWAGON GUITAR TABS, VISIT www.jiihootabs.cjb.net!
This is one of the things to live.
Tabbed by Jussi Heinonen 02.07.2006.
Tap to rate this tab
 
# A B C D E F G H I J K L M N O P Q R S T U V W X Y Z